Oops, an error
Loading. Please wait.

Balisong Tab

version 1
version 1

Whole song

Interactive

2,423 views 6 this week
no commentswrite comment
1 2 3 4 5
please rate
add to favorites
launch autoscroll
font size
0
reset
how to read this tab
guitar tuner
Tab Pro tools
  • play this tab
  • loop segment
  • change instrument
  • show fretboard
  • metronome
×
Best way to learn
"Balisong"
Autoscroll
slow
fast
+/-
esc
set tempo
stop
Contributor
Difficulty
novice
elow poh xenyong lhat!!!!!ito poh pla ang first tab ko sna poh mgustuhan nio pki rate na 
poh.....
any comments?...
send it to kurai_008@yahoo.com.ph
add poh me sa frendster....Kurai_008@yahoo.com.ph
Enx poh...

BALI SONG

INTRO(ito ung piano,transcribed to guitar..)
e-10----12~----10----12--15--14--12-10--10--12~--10----12--15--14--12-|10
B---------------------------------------------------------------------|
G---------------------------------------------------------------------|
D---------------------------------------------------------------------|
A---------------------------------------------------------------------|
E---------------------------------------------------------------------|
  your face..  lights up the sky on a highway

e-10----12~----10----12--15--14--12-10--10--12~--10----12--15--14--12-|10
B---------------------------------------------------------------------|
G---------------------------------------------------------------------|
D---------------------------------------------------------------------|
A---------------------------------------------------------------------|
E---------------------------------------------------------------------|
   someday,   you'll share your world with me someday...

VERSE
(sa plucking nito dpat mabilis daliri nio...timing lng mga tsong...)
    BbM7             D#         BM7              D#
e---------1~---------6~---------------1~---------6~------|
B---------3~---------6~---------------3~---------6~------|
G---------2~---------8~---------------2~---------8~------|
D-----3--------------8~-----------3--------------8~------|
A-1------------------6~-------1------------------6~------|
E--------------------------------------------------------|
   you   mesmerize   me,      with    almond   eyes....

    BbM7             D#         BM7              D#
e---------1~---------6~---------------1~---------6~------|
B---------3~---------6~---------------3~---------6~------|
G---------2~---------8~---------------2~---------8~------|
D-----3--------------8~-----------3--------------8~------|
A-1------------------6~-------1------------------6~------|
E--------------------------------------------------------|
  i try to       fool myself  to think of you all right.

    Dm               D#         Dm               D#
e---------5~---------6~---------------5~---------6~------|
B---------6~---------6~---------------6~---------6~------|
G---------7~---------8~---------------7~---------8~------|
D-----7--------------8~-----------7--------------8~------|
A-5------------------6~-------5------------------6~------|
E--------------------------------------------------------|
         well iam losing      all control...


    Dm               D#         Dm               D#
e---------5~---------6~---------------5~---------6~------|
B---------6~---------6~---------------6~---------6~--T-T-|
G---------7~---------8~---------------7~---------8~--A-A-|
D-----7--------------8~-----------7--------------8~--P-P-|
A-5------------------6~-------5------------------6~------|
E--------------------------------------------------------|
my mind            my heart,my body and my..... soul...

Chorus
(Normal Strumming,nakaw ko to sa video nila kya 100% accurate toh)
 Chorus
(Normal Strumming,nakaw ko to sa video nila kya 100% accurate toh)
   
 e-6-------8-----------------------------3------------------------------------------|
 B-6-------9-----------------------------4------------------------------------------|
 G-7-------10----------------------------5------------------------------------------|
 D-8-------10----------------------------5------------------------------------------|
 A-8-------8-----------------------------3------------------------------------------|
 E-6--------------------------------------------------------------------------------|
           Never in my life have i been more sure.....

   
 e-------------6---------------------6---------------------------------------------|
 B-------------7---------------------6---------------------------------------------|
 G-------------8---------------------7---------------------------------------------|
 D-------------8---------------------8---------------------------------------------|
 A-------------6---------------------8---------------------------------------------|
 E-----------------------------------6---------------------------------------------|
           So come on up to me and close the door...

 e-6-------8-----------------------------3------------------------------------------|
 B-6-------9-----------------------------4------------------------------------------|
 G-7-------10----------------------------5------------------------------------------|
 D-8-------10----------------------------5------------------------------------------|
 A-8-------8-----------------------------3------------------------------------------|
 E-6--------------------------------------------------------------------------------|
           nobody's made me feel this way before.....

 e-------------6------------------------------------------------------------------|
 B-------------7------------------------------------------------------------------|
 G-------------8------------------------------------------------------------------|
 D-------------8------------------------------------------------------------------|
 A-------------6------------------------------------------------------------------|
 E--------------------------------------------------------------------------------|
           You're everything i wanted and......

    Dm               D#         Dm               D#
e---------5~---------6~---------------5~---------6~------|
B---------6~---------6~---------------6~---------6~------|
G---------7~---------8~---------------7~---------8~------|
D-----7--------------8~-----------7--------------8~------|
A-5------------------6~-------5------------------6~------|
E--------------------------------------------------------|
....more

    Dm               D#         Dm               D#
e---------5~---------6~---------------5~---------6~------|
B---------6~---------6~---------------6~---------6~------|
G---------7~---------8~---------------7~---------8~------|
D-----7--------------8~-----------7--------------8~------|
A-5------------------6~-------5------------------6~------|
E--------------------------------------------------------|

VERSE 2
    Dm               D#         Dm               D#
e---------5~---------6~---------------5~---------6~------|
B---------6~---------6~---------------6~---------6~------|
G---------7~---------8~---------------7~---------8~------|
D-----7--------------8~-----------7--------------8~------|
A-5------------------6~-------5------------------6~------|
E--------------------------------------------------------|
  to speak or   not to,         where to     begin

    Dm               D#         Dm               D#
e---------5~---------6~---------------5~---------6~------|
B---------6~---------6~---------------6~---------6~------|
G---------7~---------8~---------------7~---------8~------|
D-----7--------------8~-----------7--------------8~------|
A-5------------------6~-------5------------------6~------|
E--------------------------------------------------------|
  and   in    dilemmas,  i'm   finding   myself in

    Dm               D#         Dm               D#
e---------5~---------6~---------------5~---------6~------|
B---------6~---------6~---------------6~---------6~------|
G---------7~---------8~---------------7~---------8~------|
D-----7--------------8~-----------7--------------8~------|
A-5------------------6~-------5------------------6~------|
E--------------------------------------------------------|
  however,you always see me as a friend.

    Dm               D#         Dm               D#
e---------5~---------6~---------------5~---------6~------|
B---------6~---------6~---------------6~---------6~------|
G---------7~---------8~---------------7~---------8~------|
D-----7--------------8~-----------7--------------8~------|
A-5------------------6~-------5------------------6~------|
E--------------------------------------------------------|
 i try to tell myself wake up fool this fairy tale's got to where?
tpoz chorus,
ADLIB
Same as chorus,2x
tpoz chorus ulit..

That's it...
Hope you ENJOY!!!
Pki Rate po ito huh...
Comments are welcome....
Eun lng po....
†      My Heart Longs for her...       †
†But My Heart Bleeds because of her....†
†    Yet My Heart Still needs her..    †
comments
We did not receive enough feedback on this tab! Please rate:
print report bad tab
1 2 3 4 5
I want to post or [tab]
guest
You may want to rate the tab now too:
select rating
Please do not post tabs as comments. Select "correction" instead!