Oops, an error
Loading. Please wait.

Bye Bye Na Tab

version 2
version 2

Whole song

608 views 3 this week
no commentswrite comment
1 2 3 4 5
please rate
add to favorites
launch autoscroll
font size
0
reset
how to read this tab
guitar tuner
Tab Pro tools
  • play this tab
  • loop segment
  • change instrument
  • show fretboard
  • metronome
×
Best way to learn
"Bye Bye Na"
Autoscroll
slow
fast
+/-
esc
set tempo
stop
Contributor
Song Title: Bye Bye Na
Artist/s: Rivermaya
Tuning: Standard
-I listened closely.. then I tabbed :)

Intro:
e|------------------------------------| (x2)
B|------------10----------------------|
G|----9-11-12----12-11-9----9-11-12-9~|
D|-10--------------------10-----------|
A|------------------------------------|
E|------------------------------------|

e|------------------------------------|
B|------------------------------------|
G|------7-10~-------7-10~-------------|
D|----9-----------9-------------------|
A|-10----------10---------------------|
E|------------------------------------|

Verse:
C      Am       Dm     G        C      Am        Dm-G
 Heto na ang gabi na ikaw ay aalis at iiwan mo ako
C      Am       Dm         G        C         Am       Dm-G
 Sa lahat ng gabi ito ang ayaw dumating sana ay umaga na

Refrain:
Ab              G          Ab               G
Tatawagan mo parin ba ako, susulatan mo pa ba ako
Ab                 G        G
Tayo parin ba 'ng dalawa kahit... na

Chorus:
C   Em   F    C  Em     F
Bye bye na... Aalis ka na
C   Em      F        C     Em  F
Bye bye na rin ba sa ating alaala

Adlib: (Intro)
e|------------------------------------| (x2)
B|------------10----------------------|
G|----9-11-12----12-11-9----9-11-12-9~|
D|-10--------------------10-----------|
A|------------------------------------|
E|------------------------------------|

e|------------------------------------|
B|------------------------------------|
G|------7-10~-------7-10~-------------|
D|----9-----------9-------------------|
A|-10----------10---------------------|
E|------------------------------------|

Verse:
C       Am         Dm       G          C
 Meron kang makikita mas higit pa sa akin
       Am          Dm-G
 Pag ika'y malayo na

(Refrain)
(Chorus)

Bridge:
Em             F           C          G
 Wag mong lilimutin na nandito lang ako
Em            F     E
 Hawak ang larawan mo

NOTE: There will be a Change in Key. (one fret higher)

Refrain:
A               Abm         A               Abm
Tatawagan mo parin ba ako, susulatan mo pa ba ako
A                  Abm        
Tayo parin ba 'ng dalawa kahit... na

Chorus:
C#  F    F#m  C#  F     F#m
Bye bye na... Aalis ka na
C#  F       F#m      C#    F  F#m
Bye bye na rin ba sa ating alaala

Outro:
C#-F-F#m-- (Fade)


Tabbed By: Lester Robles (ph)
Follow Me on Twitter: @Buuukol
-rate & comment! ;)
comments
We did not receive enough feedback on this tab! Please rate:
print report bad tab
1 2 3 4 5
I want to post or [tab]
guest
You may want to rate the tab now too:
select rating
Please do not post tabs as comments. Select "correction" instead!