Oops, an error
Loading. Please wait.

Hinahanap-Hanap Kita bass

version 4
version 4

Whole song

Interactive

4,935 views 9 this week
no commentswrite comment
1 2 3 4 5
3 more votes to show rating
add to favorites
×
Save as Personal and add changes to this tab that will be seen only by you. Learn more ›
×
You can save this tab as Personal to edit and correct it or add notes. All changes will be seen only by you. Learn more »
launch autoscroll
font size
0
reset
guitar tuner
edit
Autoscroll
slow
fast
+/-
esc
set tempo
stop
Difficulty
intermediate
Rivermaya ang nagcompose nito.
This isn't 100% correct but it is very very close to the original bassline.(I reedited 
I found some typos and I accidentally put a note that wasn't supposed to be there.I hope 
remove my previous tab)

Intro
G-------------|
D-------------|
A-------------|
E----6----5---|

Verses+Chorus
G----------------|
D---5-5-----5----|   G chord for guitar
A------3-5---5---|
E-3--------------|

G----------------|
D---5-5-----5----| still G for guitar (play this before switching to E)
A------3-5---5---|
E-3--------------|

G----------------------------|
D-2--5--4--------------------|  Em ang chord ng gitara dito
A--------5-------------------|
E-----------0-0-2-2-3-3-7-7-5|

G---------------|
D---7-7-----7---|  Am chord ng guitar
A-------5-7--7--|
E-5------------5|

G---7-7-----7---|
D-------5-7--7--| D guitar chord
A-5------------5|
E---------------|

|babalik  sa G riff pero x1 mo lang gagawin|

G-----------------------------|
D-------------------12---10-9-| eto tutugtugin mo bago magchorus
A-5-7--7-9--9-10-12-----------|
E-----------------------------|

Dun sa solo vocals ni Rico B., ganito...

G------------------------------------------------------------|
D---5---5---4---2------2----------------------5h7p5----------|
A-5-----------------2-------5------------5-------------------|  x1
E--------------------------------5----5--------------6---5---|

tutugtugin mo ang sequence na katulad dun sa verse at chorus except pagdating ng Am, may change:

pagdating ng Am chord,

G---------------------------------------|
D-----------------------------12--10-9--|
A------------5-7--7-9--9-10-12----------|
E--5--5--5------------------------------|

Submitted by VcR
I dedicate this song to FmR :)
I love you.

            
            
Suggest correction
Creating personal tab
Creating personal tab
You can edit any tab online and save it as your Personal.

You can edit, replace or remove any tab part or add personal notes – all changes will be seen only by you.

Personal tabs can be accessed anytime from any device, even offline.
Learn more »
Give kudos to tab author, rate the tab!
1 2 3 4 5
comments
print report bad tab
guest
Wanna post a correction for this tab? Suggest correction