Oops, an error
Loading. Please wait.

Hinahanap-Hanap Kita Bass Tab

version 5
version 5

Whole song

Interactive

2,018 views 3 this week
no commentswrite comment
1 2 3 4 5
please rate
add to favorites
launch autoscroll
font size
0
reset
guitar tuner
Autoscroll
slow
fast
+/-
esc
set tempo
stop
Help us to improve Ultimate-Guitar.com Take our survey!
×
Difficulty
novice
Intro

G----------|
D----------|
A-------12-|
E-6-5------|

Verse
G----------------------------------------------------|
D----------------------------------------------------|
A----------------------3-33--5-55-------------66--88-|
E-3-33-3-33--0-00-0-00-----------3-33---66-88--------|


G-----------------------------------------------------|
D-----------------------------------------------------|
A----------------------3-33--5-55-------88--66--------|
E-3-33-3-33--0-00-0-00-----------3-33----------88--66-|

Chorus
G-----------------------------------------------------------|
D-----------------------------------------------------------|
A---------------------66--88--------5-55-------88--66-------|
E-3-33-3-33--0-00--66---88-----3-33------3-33---------88-66-|

Add me on Fb kung merun questions or suggestions para lng to sa mahihirapan kumuha ng 
bass na original =3

f_lol987@yahoo.com.ph
Suggest correction
Give kudos to tab author, rate the tab!
1 2 3 4 5
comments
print report bad tab
guest
You may want to rate the tab now too:
select rating
Please do not post tabs as comments. Select "correction" instead!