Oops, an error
Loading. Please wait.

Inosente Lang Ang Nagtataka tab

version 1
version 1

Whole song

2,695 views 3 this week
2 commentsread comments
1 2 3 4 5
x 5
add to favorites
×
Save as Personal and add changes to this tab that will be seen only by you. Learn more ›
×
You can save this tab as Personal to edit and correct it or add notes. All changes will be seen only by you. Learn more »
launch autoscroll
font size
0
reset
how to read this tab
guitar tuner
edit
Autoscroll
slow
fast
+/-
esc
set tempo
stop
Author
Song: Inosente lang ang nagtataka
Artist: Rivermaya (originally performed by the wuds)
Tabbed by: John Paulo Valenton
Email Add: romayne15@yahoo.com/emotional_core15@yahoo.com
Cell. #: 09197297251
Normal tuning

Intro: Chords

1st guitar
      E         B       A
E|-----------------------------------|
B|-----------------------------------|
G|----9------------------------------| 3x
D|----9---------9-------7------------|
A|----7---------9-------7------------|
E|--------------7-------5------------|

2nd guitar

E|----4-4~~------------------------------|
B|--5-------5s7-4-2-------4-2------------|
G|------------------4---4-----4-2b-------| 3x
D|---------------------------------------|
A|---------------------------------------|
E|---------------------------------------|


Verse1:
    A    B
E|----------------------------------------------------------------|
B|----------------------------------------------------------------|
G|-------------------5-----5-----5-----5-----5-----5-----5-----5--|
D|--7---9---------5--5--5--5--5--5--5--5--5--5--5--5--5--5--5--5--|
A|--7---9---------5--5--5--5--5--5--5--5--5--5--5--5--5--5--5--5--|
E|--5---7---------5-----5-----5-----5-----5-----5-----5-----5-----|
                                      Wala… wala… wala… wala…

   G (pause)      D (pause)
E|-------------------------------------|
B|-------------------------------------|
G|------------------7------------------|
D|--5---------------7------------------|
A|--5---------------5------------------|
E|--3----------------------------------|
    Wla k namang nki2ta… pero ikw ay 2wang-2wa…


    D
E|--------------------------------|
B|--------------------------------|
G|--7--7--7--7--7--7--7--7--------|
D|--7--7--7--7--7--7--7--7--------|
A|--5--5--5--5--5--5--5--5--------|
E|--------------------------------|
    Prng kulilig s pndnig… (4x)


Pre-chorus:
   G (pause)               D (pause)
E|-------------------------------------|
B|-------------------------------------|
G|----------------------------7--------| (3x)
D|--5-------------------------7--------|
A|--5-------------------------5--------|
E|--3----------------------------------|
 Kaung ngta2ka, ngta2ka, ngta2ka…

(repeat intro)

Verse2:
    A    B
E|----------------------------------------------------------------|
B|----------------------------------------------------------------|
G|-------------------5-----5-----5-----5-----5-----5-----5-----5--|
D|--7---9---------5--5--5--5--5--5--5--5--5--5--5--5--5--5--5--5--|
A|--7---9---------5--5--5--5--5--5--5--5--5--5--5--5--5--5--5--5--|
E|--5---7---------5-----5-----5-----5-----5-----5-----5-----5-----|
                                      Wala… wala… wala… wala…

   G (pause)      D (pause)
E|-------------------------------------|
B|-------------------------------------|
G|------------------7------------------|
D|--5---------------7------------------|
A|--5---------------5------------------|
E|--3----------------------------------|
    Wla k namang nri2nig… hnd k nmn nki2nig

    D
E|--------------------------------|
B|--------------------------------|
G|--7--7--7--7--7--7--7--7--------|
D|--7--7--7--7--7--7--7--7--------|
A|--5--5--5--5--5--5--5--5--------|
E|--------------------------------|
    Prng kulilig s pndnig… (4x)


Pre-chorus:
   G (pause)               D (pause)
E|-------------------------------------|
B|-------------------------------------|
G|----------------------------7--------| (3x)
D|--5-------------------------7--------|
A|--5-------------------------5--------|
E|--3----------------------------------|
 Kaung ngta2ka, ngta2ka, ngta2ka…



1st guitar
      E         B       A
E|-----------------------------------|
B|-----------------------------------|
G|----9------------------------------| 2x
D|----9---------9-------7------------|
A|----7---------9-------7------------|
E|--------------7-------5------------|

2nd guitar

E|----4-4~~------------------------------|
B|--5-------5s7-4-2-------4-2------------|
G|------------------4---4-----4-2b-------| 2x
D|---------------------------------------|
A|---------------------------------------|
E|---------------------------------------|


Chorus:

1st guitar
      E         B       A
E|-----------------------------------|
B|-----------------------------------|
G|----9------------------------------| 4x
D|----9---------9-------7------------|
A|----7---------9-------7------------|
E|--------------7-------5------------|

2nd guitar

E|----4-4~~------------------------------|
B|--5-------5s7-4-2-------4-2------------|
G|------------------4---4-----4-2b-------| 4x
D|---------------------------------------|
A|---------------------------------------|
E|---------------------------------------|
      Ha, Inosente lng ang ngta2ka…


(Repeat verse1, pero ung line na “prng kulilig s pndnig” 3 times lng)

(Repeat pre-chorus)

(Repeat chorus)

    A    B
E|----------------------------------------------------------------|
B|----------------------------------------------------------------|
G|-------------------5-----5-----5-----5-----5-----5-----5-----5--|
D|--7---9---------5--5--5--5--5--5--5--5--5--5--5--5--5--5--5--5--|
A|--7---9---------5--5--5--5--5--5--5--5--5--5--5--5--5--5--5--5--|
E|--5---7---------5-----5-----5-----5-----5-----5-----5-----5-----|
                                      Wala… wala… wala… wala…

E|--------------------------------------------------------------|
B|--------------------------------------------------------------|
G|-----------------5-----5-----5-----5-----5-----5-----5-----5--|
D|--------------5--5--5--5--5--5--5--5--5--5--5--5--5--5--5--5--|
A|--------------5--5--5--5--5--5--5--5--5--5--5--5--5--5--5--5--|
E|--------------5-----5-----5-----5-----5-----5-----5-----5-----|
                                      Wala… wala… wala… wala…

Ends in A

E|----------------|
B|----------------|
G|----------------|
D|-----7----------|
A|-----7----------|
E|-----5----------|

Pkirate puh…

            
            
Suggest correction
Creating personal tab
Creating personal tab
You can edit any tab online and save it as your Personal.

You can edit, replace or remove any tab part or add personal notes – all changes will be seen only by you.

Personal tabs can be accessed anytime from any device, even offline.
Learn more »
comments
print report bad tab
2 comments total.
-1 reply
lllmacky 10 Apr 23, 2007 06:25 AM

waLang kwenta. asus.

-1 reply
the_wuds 10 May 10, 2007 03:33 PM

anu b yan..npka walang kwenta ng kanta n toh ehh

guest
You may want to rate the tab now too:
select rating
Wanna post a correction for this tab? Suggest correction