Oops, an error
Loading. Please wait.

Inosente Lang Ang Nagtataka tab

version 2
version 2

Whole song

831 views 1 this week
no commentswrite comment
1 2 3 4 5
2 more votes to show rating
add to favorites
×
Save as Personal and add changes to this tab that will be seen only by you. Learn more ›
×
You can save this tab as Personal to edit and correct it or add notes. All changes will be seen only by you. Learn more »
launch autoscroll
font size
0
reset
how to read this tab
guitar tuner
edit
Autoscroll
slow
fast
+/-
esc
set tempo
stop
Author
Tabbers playing skills
advanced +
By-Francis
Location - Carmelite, Lucena City
Cp #-09287150674
E-add- f_sario@yahoo.com  (friendster)add me!
School- Sacred Heart Colleg

Intro-...ting!!!....

G1    3X
E|------------------------------------------|
B|------------------------------------------|
G|----9999999999----------------------------|
D|----9999999999-999999999-777777777--------|
A|----7777777777-999999999-777777777--------|
E|---------------777777777-555555555--------|

   G2  Lead Part
E|----------------------------------------------------|
B|-----------9~---------------------------------------|
G|------7/9p--9-9-9--8-----------8--------------------|
D|-----------------------11p9-9b---11p9-7b7b7r--------|
A|----------------------------------------------------|
E|----------------------------------------------------|


E|----------------------------------------------------|
B|----------------------------------------------------|
G|-----7/9p-99999-8-------------8---------------------|
D|-----------------------11p9-9b---11p9-7b7b7r--------|
A|----------------------------------------------------|
E|----------------------------------------------------|

E|----------------------------------------------------|
B|---------9-9----------------------------------------|
G|-----7/9p-9-9-998-------------8---------------------|
D|-----------------------11p9-9b---11p9-7b7b7r--------|
A|----------------------------------------------------|
E|----------------------------------------------------|


E|---------------------x-----x-----x---------------|
B|-----------------1---x--1--x--1--x--1------------|
G|-----------------1---x--1--x--1--x--1------------|
D|-7-9--------x2---2---x--2--x--2--x--2------------|
A|-7-9--------x2---2---x--2--x--2--x--2------------|
E|-5-7--------x0---0---x--0--x--0--x--0------------|

guitar1                 Wala wala wala 

E|-----x-------x------x------x-----------|---------|
B|-----x----1--x---1--x---1--x--1--------|---------|
G|-----x----1--x---1--x---1--x--1--------|---------|
D|-----x----2--x---2--x---2--x--2--------|---------|
A|-----x----2--x---2--x---2--x--2--------|---------|
E|-----x----0--x---0--x---0--x--0--------|---------|
gutar2-E5-E5-E5-E5-E5-E5-E5-E5-G5
1St Part:
     Wala ka bang nakikita! Pero Ika’y tuwana-tuwa!
E|---------------------|---------------------------------|
B|---------------------|---------------------------------|
G|---------------------|------7--------------------------|
D|------5---HOLD-------|-----7-----HOLD------------------|
A|-----5---------------|----5----------------------------|
E|----3----------------|---------------------------------|

      Parang kuliling sa pandinig (4X)
E|-------------------------------------------------------|
B|-------------------------------------------------------|
G|---777777777777777777777777777777777-------------------|
D|---777777777777777777777777777777777-------------------|
A|---555555555555555555555555555555555-------------------|
E|-------------------------------------------------------|

  (Pause) Kayong nagtataka, nagtataka, nagtataka! (3X)
E|----------------|             |----------------------|
B|----------------|             |----------------------|
G|----------------|pause        |---------7------------|
D|---5------------|             |--------7-------------|HOLD
A|---5------------|             |-------5--------------|
E|---3------------|             |----------------------|

Do Intro:
G1    3X
E|------------------------------------------|
B|------------------------------------------|
G|----9999999999----------------------------|
D|----9999999999-999999999-777777777--------|
A|----7777777777-999999999-777777777--------|
E|---------------777777777-555555555--------|

   G2  Lead Part

E|----------------------------------------------------|
B|------------9~--------------------------------------|
G|------7/9p9--9---8-----------8----------------------|
D|-----------------------11p9-9b---11p9-7b7b7r--------|
A|----------------------------------------------------|
E|----------------------------------------------------|


E|----------------------------------------------------|
B|---------9-9----------------------------------------|
G|-----7/9p-9-9-998-------------8---------------------|
D|-----------------------11p9-9b---11p9-7b7b7r--------|
A|----------------------------------------------------|
E|----------------------------------------------------|



E|----------------------------------------------------|
B|----------------------------------------------------|
G|-----7/9p-99999-8-------------8---------------------|
D|-----------------------11p9-9b---11p9-7b7b7r--------|
A|----------------------------------------------------|
E|----------------------------------------------------|


E|---------------------x-----x-----x---------------|
B|-----------------1---x--1--x--1--x--1------------|
G|-----------------1---x--1--x--1--x--1------------|
D|-7-9--------x2---2---x--2--x--2--x--2------------|
A|-7-9--------x2---2---x--2--x--2--x--2------------|
E|-5-7--------x0---0---x--0--x--0--x--0------------|

guitar1                 Wala wala wala 

E|-----x-------x------x------x-----------|---------|
B|-----x----1--x---1--x---1--x--1--------|---------|
G|-----x----1--x---1--x---1--x--1--------|---------|
D|-----x----2--x---2--x---2--x--2--------|---------|
A|-----x----2--x---2--x---2--x--2--------|---------|
E|-----x----0--x---0--x---0--x--0--------|---------|
gutar2-E5-E5-E5-E5-E5-E5-E5-E5


1St Part:

2St Part:
      (Pause) Wala ka bang naririnig! Hindi ka naman nakikinig!
E|----------------------|---------------------------------|
B|----------------------|---------------------------------|
G|-----------X----------|------7------X-------------------|
D|------5---x-----------|-----7------x--------------------|
A|-----5---x------------|----5------x---------------------|
E|----3-----------------|---------------------------------|

      Parang kuliling sa pandinig (4X)
E|-------------------------------------------------------|
B|-------------------------------------------------------|
G|---777777777777777777777777777777777-------------------|
D|---777777777777777777777777777777777-------------------|
A|---555555555555555555555555555555555-------------------|
E|-------------------------------------------------------|

  (Pause) Kayong nagtataka, nagtataka, nagtataka! (3X)

E|----------------||-------------------|
B|----------------||-------------------|
G|----------------\|-------7-----------|
D|---5------------||-------7-----------|
A|---5------------||-------5-----------|
E|---3------------||-------------------|


int

E|---------------------------------------------------|
B|------------9~-------------------------------------|
G|------7/9-9--9---8-----------8---------------------|
D|-----------------------11p9-9b---11p9-7b7b7r-------|
A|---------------------------------------------------|
E|---------------------------------------------------|


E|----------------------------------------------------|
B|--------9-9-----------------------------------------|
G|-----7/9-9-9-9-9-8-----------8----------------------|
D|-----------------------11p9-9b---11p9-7b7b7r--------|
A|----------------------------------------------------|
E|----------------------------------------------------|


  G1    3X
E|------------------------------------------|
B|------------------------------------------|
G|----9999999999----------------------------|
D|----9999999999-999999999-777777777--------|
A|----7777777777-999999999-777777777--------|
D|---------------999999999-777777777--------|

   G2  Lead Part

Chorus:

Ha!Inosente lang ang nagtataka (4X)
E|------------------------------------------|
B|------------------------------------------|
G|----9999999999----------------------------|
D|----9999999999-999999999-777777777--------|
A|----7777777777-999999999-777777777--------|
E|---------------777777777-555555555--------|

hoy,hoy,hoy.hoy...
E|-----------------------x-----x-----x---------------|
B|---------------------1---x--1--x--1--x--1------------|
G|---------------------1---x--1--x--1--x--1------------|
D|-7-7-7-9--------x2---2---x--2--x--2--x--2------------|
A|-7-7-7-9--------x2---2---x--2--x--2--x--2------------|
E|-5-5-5-9--------x0---0---x--0--x--2--x--0------------|

guitar1                 Wala wala wala 

E|-----x-------x------x------x-------------------------|
B|-----x----1--x---1--x---1--x--1----------------------|
G|-----x----1--x---1--x---1--x--1----------------------|
D|-----x----2--x---2--x---2--x--2----------------------|
A|-----x----2--x---2--x---2--x--2----------------------|
E|-----x----0--x---0--x---0--x--0----------------------|

guitar2-E5-E5-E5-E5-E5-E5-E5-E5
REPEAT..VERSE 1 END--~X


by f_sario@yahoo.com &
rakiztahz_03@yahoo.com


made in Lucena City

"Wag Ka Na!"

            
            
Suggest correction
Creating personal tab
Creating personal tab
You can edit any tab online and save it as your Personal.

You can edit, replace or remove any tab part or add personal notes – all changes will be seen only by you.

Personal tabs can be accessed anytime from any device, even offline.
Learn more »
Give kudos to tab author, rate the tab!
1 2 3 4 5
comments
print report bad tab
guest
You may want to rate the tab now too:
select rating
Wanna post a correction for this tab? Suggest correction