Oops, an error
Loading. Please wait.

Isang Bandila bass

version 1
version 1

Whole song

Interactive

2,815 views 3 this week
no commentswrite comment
1 2 3 4 5
3 more votes to show rating
add to favorites
×
Save as Personal and add changes to this tab that will be seen only by you. Learn more ›
×
You can save this tab as Personal to edit and correct it or add notes. All changes will be seen only by you. Learn more »
launch autoscroll
font size
0
reset
guitar tuner
edit
Autoscroll
slow
fast
+/-
esc
set tempo
stop
Difficulty
intermediate
titile:Isang Bandila
artist:Rivermaya
tabber:tantoi
Band:Cakewalk
Location: Cams.Norte,Daet
Email:kuatantoi@yahoo.com

Para to sa inyo!
actually ginawa ko to sa guitar pro 5..
indi nman ako bassists ako ung lead guitar. hehe..
ung mga konting singit di ko na kinapa. bahala na kayo dun, kaya nyo yan!
tsaka ung ibang nota sarili ko lang para magandang pakinggan.
sana kung my guitar pro ung PC nyo maririnig nyo ung full version ko ng kanta
kahit na walang percussion at vocal..
hindi ksi ako marunong mag drums..PEACE!

TEMPO: 150, MODERATE

INTRO:
     E  E  E  E  E  E  E  E     E  E  E  E  E  E  E  E
G||--2--2--2--2--2--2--2--2--|--4--4--4--4--4--4--4--4--|
D||--------------------------|--------------------------|
A||--------------------------|--------------------------|
E||--------------------------|--------------------------|


  E  E  E  E  E  E  E  E     E  E  E  E  E  E  E  E
--5--5--5--5--5--5--5--5--|--7--7--7--7--7--7--7--7--|
--------------------------|--------------------------|
--------------------------|--------------------------|
--------------------------|--------------------------|


  E  E  E  E  E  E  E  E     E  E  E  E  E  E  E  E
--2--2--2--2--2--2--2--2--|--4--4--4--4--4--4--4--4--|
--------------------------|--------------------------|
--------------------------|--------------------------|
--------------------------|--------------------------|


  E  E  E  E  E  E  E  E     E  E  E  E  E  E  E  E     Q    Q    E  E  E  E
--5--5--5--5--5--5--5--5--|--7--7--7--7--7--7--7--7--|------------------------|
--------------------------|--------------------------|------------------------|
--------------------------|--------------------------|------------------------|
--------------------------|--------------------------|--5----5----5--3--5--6--|


  Q    Q    E  E  E  E     Q    Q    E  E  E  E      E  E  E  E   E  E  E  E
------------------------|------------------------|----------------------------|
------------------------|------------------------|----------------------------|
------------------------|------------------------|----------------------------|
--5----5----5--3--5--6--|--5----5----5--3--5--6--|--/8--8--8--8S--0--0--0--0--|


  Q    Q    E  E  E  E     Q    Q    E  E  E  E     Q    Q    E  E  E  E
------------------------|------------------------|------------------------|
------------------------|------------------------|------------------------|
------------------------|------------------------|------------------------|
--5----5----5--3--5--6--|--5----5----5--3--5--6--|--5----5----5--3--5--6--|


   E  E  E  E   E   Q    GUITAR FILL --------------------------------------|
-------------------------|-------|-------|-------|-------|-------|---------|
-------------------------|-------|-------|-------|-------|-------|---------|
-------------------------|-------|-------|-------|-------|-------|---------|
--/8--8--8--8S--0S--4----|-------|-------|-------|-------|-------|---------|

                VERSE:
---------------   E  E  H        H           E  E     E  E  H-------------------|        H
-------|-------|--------------------------|--------|----------------------------|
-------|-------|--------------------------|--------|----------------------------|
-------|-------|--------------------------|--------|----------------------------|
-------|-------|--5--5-----------5--------|--7--7--|--5--5-----------5----------|


  E    E  E  E  E  E  E     E  E  H        H           E  E
-------------------------|--------------------------|--------|
--9h--10--9--7--9--7--4--|--------------------------|--------|
-------------------------|--------------------------|--------|
-------------------------|--5--5-----------5--------|--7--7--|


  E  E  H        H           E    E  E  E  E  E  E  E
--------------------------|----------------------------|
--------------------------|--9h--10--9--7--9--7--4--4--|
--------------------------|----------------------------|
--5--5-----------5--------|----------------------------|


  E  E  H        H           E  E     E  E  H        H
--------------------------|--------|--------------------------|
--------------------------|--------|--------------------------|
--------------------------|--------|--------------------------|
--5--5-----------5--------|--7--7--|--5--5-----------5--------|


  E    E  E  E  E  E  E  E     E  E  H        H           E  E     E  E
----------------------------|--------------------------|--------|--------|
--9h--10--9--7--9--7--4--4--|--------------------------|--------|--------|
----------------------------|--------------------------|--------|--------|
----------------------------|--5--5-----------5--------|--7--7--|--5--5--|

                             PRE-CHORUS:
  E    E  E  E  E  E  E  E     E  E  E  E  E  E  E  E
----------------------------|--------------------------|
--9h--10--9--7--9--7--4--4--|--------------------------|
----------------------------|--------------------------|
----------------------------|--5--5--5--5--5--5--5--5--|


  E  E  E  E  E  E  E  E     E  E  E  E  E  E  E  E
--------------------------|--------------------------|
--------------------------|--------------------------|
--------------------------|--------------------------|
--5--5--5--5--5--5--5--5--|--8--8--8--8--8--8--8--8--|


  E  E  E  E  E  E  E  E     E  E  E  E  E  E  E  E
--------------------------|--------------------------|
--------------------------|--------------------------|
--------------------------|--------------------------|
--8--8--8--8--8--8--8--8--|--5--5--5--5--5--5--5--5--|


  E  E  E  E  E  E  E  E     E  E  E  E  E  E  E  E
--------------------------|--------------------------|
--------------------------|--------------------------|
--------------------------|--------------------------|
--5--5--5--5--5--5--5--5--|--8--8--8--8--8--8--8--8--|

                           CHORUS:
  E  E  E  E  E  E  E  E     W                   Q    Q       Q    Q
--------------------------|-------------------|------------|------------|
--------------------------|-------------------|------------|------------|
--------------------------|--3----------------|------------|--5----5----|
--8--8--8--8--8--8--8--8--|-------------------|--3----3----|------------|


  Q    E  E  E  E  E     W                   Q    Q       Q    Q
----------------------|-------------------|------------|------------|
----------------------|-------------------|------------|------------|
----------7-----7-----|--3----------------|------------|------------|
--5----5-----5-----5--|-------------------|--3----3----|--5----5----|


  Q    E  E  E  E  E     Q    Q       W                   Q    Q
----------------------|------------|-------------------|------------|
----------------------|------------|-------------------|------------|
----------3-----3-----|--3----3----|-------------------|--5----5----|
--1----1-----1-----1--|------------|--3----------------|------------|


  Q    E  E  E  E  E     Q    Q       Q    Q       H        H
----------------------|------------|------------|--------------------|
----------------------|------------|------------|--------------------|
----------7-----7-----|--3----3----|------------|--------------------|
--5----5-----5-----5--|------------|--3----3----|--5--------5--------|


  Q    Q    Q    Q       H        GUITAR FILL --------------------------|
----------------------|-----------|-----------|-----------|-------------|
----------------------|-----------|-----------|-----------|-------------|
----------------------|-----------|-----------|-----------|-------------|
--1----1----1----1----|--5--------|-----------|-----------|-------------|

VERSE 2:
  E  E  H        H           E  E     E  E  H        H
--------------------------|--------|--------------------------|
--------------------------|--------|--------------------------|
--------------------------|--------|--------------------------|
--5--5-----------5--------|--7--7--|--5--5-----------5--------|


  E    E  E  E  E  E  E     E  E  H        H           E  E
-------------------------|--------------------------|--------|
--9h--10--9--7--9--7--4--|--------------------------|--------|
-------------------------|--------------------------|--------|
-------------------------|--5--5-----------5--------|--7--7--|


  E  E  H        H           E    E  E  E  E  E  E  E
--------------------------|----------------------------|
--------------------------|--9h--10--9--7--9--7--4--4--|
--------------------------|----------------------------|
--5--5-----------5--------|----------------------------|


  E  E  H        H           E  E     E  E  H        H
--------------------------|--------|--------------------------|
--------------------------|--------|--------------------------|
--------------------------|--------|--------------------------|
--5--5-----------5--------|--7--7--|--5--5-----------5--------|


  E    E  E  E  E  E  E  E     E  E  H        H           E  E     E  E
----------------------------|--------------------------|--------|--------|
--9h--10--9--7--9--7--4--4--|--------------------------|--------|--------|
----------------------------|--------------------------|--------|--------|
----------------------------|--5--5-----------5--------|--7--7--|--5--5--|

                             PRE-CHORUS:
  E    E  E  E  E  E  E  E     E  E  E  E  E  E  E  E
----------------------------|--------------------------|
--9h--10--9--7--9--7--4--4--|--------------------------|
----------------------------|--------------------------|
----------------------------|--5--5--5--5--5--5--5--5--|


  E  E  E  E  E  E  E  E     E  E  E  E  E  E  E  E
--------------------------|--------------------------|
--------------------------|--------------------------|
--------------------------|--------------------------|
--5--5--5--5--5--5--5--5--|--8--8--8--8--8--8--8--8--|


  E  E  E  E  E  E  E  E     E  E  E  E  E  E  E  E
--------------------------|--------------------------|
--------------------------|--------------------------|
--------------------------|--------------------------|
--8--8--8--8--8--8--8--8--|--5--5--5--5--5--5--5--5--|


  E  E  E  E  E  E  E  E     E  E  E  E  E  E  E  E
--------------------------|--------------------------|
--------------------------|--------------------------|
--------------------------|--------------------------|
--5--5--5--5--5--5--5--5--|--8--8--8--8--8--8--8--8--|

                          CHORUS:
  E  E  E  E  E  E  E  E     Q       Q    Q       Q    Q
--------------------------|-------|------------|------------|
--------------------------|-------|------------|------------|
--------------------------|--3----|------------|--5----5----|
--8--8--8--8--8--8--8--8--|-------|--3----3----|------------|


  Q    E  E  E  E  E     Q       Q    Q       Q    Q       Q    E  E  E  E  E
----------------------|-------|------------|------------|----------------------|
----------------------|-------|------------|------------|----------------------|
----------7-----7-----|--3----|------------|------------|----------3-----3-----|
--5----5-----5-----5--|-------|--3----3----|--5----5----|--1----1-----1-----1--|


  Q    Q       E     Q    Q       Q    E  E  E  E  E     Q    Q
------------|-----|------------|----------------------|------------|
------------|-----|------------|----------------------|------------|
--3----3----|-----|--5----5----|----------7-----7-----|--3----3----|
------------|--3--|------------|--5----5-----5-----5--|------------|


  Q    Q       H        E  E  E  E     H        E  E  E  E
------------|-----------------------|-----------------------|
------------|-----------------------|-----------------------|
------------|-----------------------|-----------------------|
--3----3----|--5--------5--5--5--5--|--1--------1--1--1--1--|


  H        Q    E  E     H        Q    E  E     H        Q    E  E
----------------------|----------------------|----------------------|
----------------------|----------------------|----------------------|
--3--------3----3--3--|----------------------|--5--------5----5--5--|
----------------------|--3--------3----3--3--|----------------------|


  H        E   E     H        Q    E  E     H        Q    E  E
------------------|----------------------|----------------------|
------------------|----------------------|----------------------|
------------------|----------------------|----------------------|
--5--------5S--7--|--8--------8----8--8--|--3--------3----3--3--|

                                                   LAST CHORUS:
  H        E  E  E  E     E  E  E  E  E  E  E  E     H        Q    E  E
-----------------------|--------------------------|----------------------|
-----------------------|--------------------------|----------------------|
-----------------------|--------------------------|--3--------3----3--3--|
--5--------5--5--5--5--|--1--1--1--1--1--1--1--1--|----------------------|


  H        Q    E  E     H        Q    E  E     H        E   E
----------------------|----------------------|------------------|
----------------------|----------------------|------------------|
----------------------|--5--------5----5--5--|------------------|
--3--------3----3--3--|----------------------|--5--------5S--7--|


  H        Q    E  E     H        Q    E  E     H        Q    E  E
----------------------|----------------------|----------------------|
----------------------|----------------------|----------------------|
----------------------|----------------------|----------------------|
--8--------8----8--8--|--3--------3----3--3--|--5--------5----5--5--|


  H        Q    E  E     H        Q    E  E     H        Q    E  E
----------------------|----------------------|----------------------|
----------------------|----------------------|----------------------|
----------------------|--3--------3----3--3--|--5--------5----5--5--|
--1--------1----1--1--|----------------------|----------------------|


  H        Q    E  E     H        Q    E  E     H        Q    E  E
----------------------|----------------------|----------------------|
----------------------|----------------------|----------------------|
----------------------|--8--------8----8--8--|--3--------3----3--3--|
--5--------5----5--5--|----------------------|----------------------|


  H        Q    E  E     H        Q    E  E     H        Q    E  E
----------------------|----------------------|----------------------|
----------------------|----------------------|----------------------|
--5--------5----5--5--|----------------------|----------------------|
----------------------|--5--------5----5--5--|--1--------1----1--1--|


  H        Q    E  E     H        Q    E  E     H        Q    E  E
----------------------|----------------------|----------------------|
----------------------|----------------------|----------------------|
--3--------3----3--3--|--5--------5----5--5--|----------------------|
----------------------|----------------------|--5--------5----5--5--|


  H        Q    E  E     H        Q    E  E     H        Q    E  E
----------------------|----------------------|----------------------|
----------------------|----------------------|----------------------|
----------------------|--3--------3----3--3--|--5--------5----5--5--|
--1--------1----1--1--|----------------------|----------------------|


  H        Q    E  E     H        Q    E  E     H        Q    E  E
----------------------|----------------------|----------------------|
----------------------|----------------------|----------------------|
----------------------|----------------------|--3--------3----3--3--|
--5--------5----5--5--|--1--------1----1--1--|----------------------|


  H        Q    E  E     H        Q    E  E     H        Q    E  E
----------------------|----------------------|----------------------|
----------------------|----------------------|----------------------|
--5--------5----5--5--|----------------------|----------------------|
----------------------|--5--------5----5--5--|--1--------1----1--1--|


  H        Q    E  E     H        Q    E  E     H        E  E  E  E
----------------------|----------------------|-----------------------|
----------------------|----------------------|-----------------------|
----------------------|----------------------|-----------------------|
--8--------8----8--8--|--3--------3----3--3--|--5--------5--5--5--5--|

                           OUTRO:
  E  E  E  E  E  E  E  E     E  E  E  E  E  E  E  E
--------------------------|--2--2--2--2--2--2--2--2--|
--------------------------|--------------------------|
--------------------------|--------------------------|
--1--1--1--1--1--1--1--1--|--------------------------|


  E  E  E  E  E  E  E  E     E  E  E  E  E  E  E  E
--4--4--4--4--4--4--4--4--|--5--5--5--5--5--5--5--5--|
--------------------------|--------------------------|
--------------------------|--------------------------|
--------------------------|--------------------------|


  E  E  E  E  E  E  E  E     E  E  E  E  E  E  E  E
--7--7--7--7--7--7--7--7--|--2--2--2--2--2--2--2--2--|
--------------------------|--------------------------|
--------------------------|--------------------------|
--------------------------|--------------------------|


  E  E  E  E  E  E  E  E     E  E  E  E  E  E  E  E
--4--4--4--4--4--4--4--4--|--5--5--5--5--5--5--5--5--|
--------------------------|--------------------------|
--------------------------|--------------------------|
--------------------------|--------------------------|


  E  E  E  E  E  E  E  E     Q    Q    E  E  E  E     Q    Q    E  E  E  E
--7--7--7--7--7--7--7--7--|------------------------|------------------------|
--------------------------|------------------------|------------------------|
--------------------------|------------------------|------------------------|
--------------------------|--5----5----5--3--5--6--|--5----5----5--3--5--6--|


  Q    Q    E  E  E  E      E  E  E  E   E  E  E  E     Q    Q    E  E  E  E
------------------------|----------------------------|------------------------|
------------------------|----------------------------|------------------------|
------------------------|----------------------------|------------------------|
--5----5----5--3--5--6--|--/8--8--8--8S--0--0--0--0--|--5----5----5--3--5--6--|


  Q    Q    E  E  E  E     Q    Q    E  E  E  E     E  E  E  E   E   Q
------------------------|------------------------|------------------------||
------------------------|------------------------|------------------------||
------------------------|------------------------|------------------------||
--5----5----5--3--5--6--|--5----5----5--3--5--6--|--8--8--8--8S--0S--4----|| END:

Duration Legend
---------------
W - whole
H - half
Q - quarter
E - 8th
S - 16th
T - 32nd
X - 64th
. - note dotted

Tablature Legend
----------------

x - dead note
> - accentuded note
NH - natural harmonic
AH - artificial harmonic
TH - tapped harmonic
SH - semi harmonic
PH - pitch harmonic
h - hammer on
p - pull off
b - bend
br - bendRelease
pb - preBend
S - shift slide
s - legato slide
/ -  slide into from below or out of upwards
\ -  slide into from above or out of downwards
~ - vibrato

            
            
Suggest correction
Creating personal tab
Creating personal tab
You can edit any tab online and save it as your Personal.

You can edit, replace or remove any tab part or add personal notes – all changes will be seen only by you.

Personal tabs can be accessed anytime from any device, even offline.
Learn more »
Give kudos to tab author, rate the tab!
1 2 3 4 5
comments
print report bad tab
guest
Wanna post a correction for this tab? Suggest correction