Oops, an error
Loading. Please wait.

Isang Bandila tab

version 2
version 2

Whole song

Interactive

12,837 views 3 this week
19 commentsread comments
1 2 3 4 5
x 9
add to favorites
×
Save as Personal and add changes to this tab that will be seen only by you. Learn more ›
×
You can save this tab as Personal to edit and correct it or add notes. All changes will be seen only by you. Learn more »
launch autoscroll
font size
0
reset
how to read this tab
guitar tuner
edit
Autoscroll
slow
fast
+/-
esc
set tempo
stop
Author
Difficulty
Title: Isang Bandila
Artist: Rivermaya
Tabber: alfonz___
Email Ad: alfonz_montelibano@yahoo.com
Tuning: Standard

Intro:

e|--------12----15-------12-------12----17-------12-|
B|-----15-------------15-------15-------------15----|
G|--14-------14----14-------14-------14----14-------| 4x
D|--------------------------------------------------|
A|--------------------------------------------------|
E|--------------------------------------------------|

then...
e|----------------------|
B|----------------------|
G|----------------------| 3x
D|--7--7--7-5-7-8-5-----| 
A|--7--7--7-5-7-8-5-----|
E|--5--5--5-3-5-6-3-----|  


e|----------------------|
B|----------------------|
G|-5-5-5-5--------------|
D|-5-5-5-5-2-2-2-2------|
A|-3-3-3-3-2-2-2-2------|
E|---------0-0-0-0------|

e|----------------------|
B|----------------------|
G|----------------------| 3x
D|--7--7--7-5-7-8-5-----| 
A|--7--7--7-5-7-8-5-----|
E|--5--5--5-3-5-6-3-----|  

e|----------------------|
B|----------------------|
G|-5-5-5-5--------------|
D|-5-5-5-5-2-6----------|
A|-3-3-3-3-2-6----------|
E|---------0-4----------|


VERSE:
  PM
e|-------------------------------------------------|
B|-------------------------------------------------|
G|-----------4-4-----4-4-----4-4-------------------|
D|--------7------5-5-----5-5-----5-5---------------|
A|------7------------------------------------------|
E|--5-5--------------------------------------------|
                             WOAH OHH!!!

e|-------------------------------------------------|
B|-------------------------------------------------|
G|-----------4-4-----4h5p4-2-4-2-0-----------------|
D|--------7------5-5-------------------------------|
A|------7------------------------------------------|
E|--5-5--------------------------------------------|
                             WOAH OH!!!

repeat (from PM)

VERSE 1:
do the verse riffs...

Wag kang mabahala sa
Kahol ng mga aso
Ligtas ang pag asang nakasakay
Sa ating mga palad at balikat
Wag mong patulan wag mong sakyan
Ang mga talangka
Panis ang angas sa respeto't
Pagpapakumbaba


REFRAIN:

e|--------12----15-------12-------12----17-------12-|
B|-----15-------------15-------15-------------15----|
G|--14-------14----14-------14-------14----14-------| 4x
D|--------------------------------------------------|
A|--------------------------------------------------|
E|--------------------------------------------------|

then may lead: e|---15~-8~-12~------|
	       B|-------------------|
               G|-------------------|
               D|-------------------| 

   walang matayog na pangarap
   sa bayang may sipag at tiyaga


CHORUS:


e|------0---------3--------5----------------|
B|--------1---------3--------6-------0h1----|
G|----0---------0-------------------2---2---|
D|-----------------------7---------2--------| 
A|--3------------------5---------0----------|
E|------------3-----------------------------|
   isang ugat          isang dugo


e|------0---------3--------0----------------|
B|--------1---------3--------1--------------|
G|----0---------0--------2-----------0h2----|
D|----------------------2-----------3---3---| 
A|--3------------------0-----------3--------|
E|------------3------------------1----------|
    isang pangalan     pilipino


e|------0---------3--------5----------------|
B|--------1---------3--------6-------0h1----|
G|----0---------0-------------------2---2---|
D|-----------------------7---------2--------| 
A|--3------------------5---------0----------|
E|------------3-----------------------------|
   isang tadhanang         lalakbayin

e|------0---------3-----------|
B|--------1---------3---------|
G|--------------0-------------|
D|----2-----------------------| 
A|--3-------------------------|
E|------------3---------------|
    isang panata

e|------------------|
B|------------------|
G|------------------|
D|--7-7-7-7-3-3-3-3-| 
A|--7-7-7-7-3-3-3-3-|
E|--5-5-5-5-1-1-1-1-|
   isang bandila!


   (let ring)
e|--------|
B|--------|
G|--------|
D|--7*----| 
A|--7*----|
E|--5*----|

  PM
e|-------------------------------------------------|
B|-------------------------------------------------|
G|--4-4-----4-4-----4-4-----4-4--------------------|
D|------5-5-----5-5-----5-5-----5-5----------------| 
A|-------------------------------------------------|
E|-------------------------------------------------|
		whoah ohh!!

e|-------------------------------------------------|
B|-------------------------------------------------|
G|--4-4-----4-4-----4h5p4-2-4-2-0------------------|
D|------5-5-----5-5--------------------------------| 
A|-------------------------------------------------|
E|-------------------------------------------------|

VERSE 2: (repeat the 2 tabs above for the verse)

Pekeng bayani
Pekeng paninindigan
SUbukan naman nating
Pagtulung tulungan
Paglayang ating minimithi

REFRAIN:

e|--------12----15-------12-------12----17-------12-|
B|-----15-------------15-------15-------------15----|
G|--14-------14----14-------14-------14----14-------| 4x
D|--------------------------------------------------|
A|--------------------------------------------------|
E|--------------------------------------------------|

       Lead:   e|---15~-8~-12~------|
	       B|-------------------|
               G|-------------------|
               D|-------------------| 

Hindi alamat 
Hindi konsepto
Ang bayanihang minana mo	

CHORUS:

[Notes for chorus:]

Guitar 1: one strum each chord above the tab, POWERCHORDS
Guitar 2: plucking
       
    C         G        Dm        Am
e|------0---------3--------5----------------|
B|--------1---------3--------6-------0h1----|
G|----0---------0-------------------2---2---|
D|-----------------------7---------2--------| 
A|--3------------------5---------0----------|
E|------------3-----------------------------|
   isang ugat          isang dugo

    C         G         Am       F
e|------0---------3--------0----------------|
B|--------1---------3--------1--------------|
G|----0---------0--------2-----------0h2----|
D|----------------------2-----------3---3---| 
A|--3------------------0-----------3--------|
E|------------3------------------1----------|
    isang pangalan     pilipino

    C         G         Dm       Am
e|------0---------3--------5----------------|
B|--------1---------3--------6-------0h1----|
G|----0---------0-------------------2---2---|
D|-----------------------7---------2--------| 
A|--3------------------5---------0----------|
E|------------3-----------------------------|
   isang landas na            tatahakin

    C         G         Am       F <-- malakas na d2
e|------0---------3--------0----------------|
B|--------1---------3--------1--------------|
G|----0---------0--------2-----------0h2----|
D|----------------------2-----------3---3---| 
A|--3------------------0-----------3--------|
E|------------3------------------1----------|
    isang panata     isang bandila!!


e|-------------------------------------------------|
B|-------------------------------------------------|
G|--5-5-5-5---------7-7-7-7------------------------|
D|--5-5-5-5-5-5-5-5-7-7-7-7-7-7-7-7----------------| 
A|--3-3-3-3-5-5-5-5-5-5-5-5-7-7-7-7----------------|
E|----------3-3-3-3---------5-5-5-5----------------|
      ohhh......................... 

                            [mabilis d2 sa F]
e|-------------------------------------------------|
B|-------------------------------------------------|
G|--5-5-5-5----------------------------------------|
D|--5-5-5-5-5-5-5-5-7-7-7-7-3-3-3-3-3-3-3----------| 
A|--3-3-3-3-5-5-5-5-7-7-7-7-3-3-3-3-3-3-3----------|
E|----------3-3-3-3-5-5-5-5-1-1-1-1-1-1-1----------|

then

e|-------------------------------------------------|
B|-------------------------------------------------|
G|--5-5-5-5---------7-7-7-7------------------------|
D|--5-5-5-5-5-5-5-5-7-7-7-7-7-7-7-7----------------| 
A|--3-3-3-3-5-5-5-5-5-5-5-5-7-7-7-7----------------|
E|----------3-3-3-3---------5-5-5-5----------------|
    isang ugat      isang dugo

e|-------------------------------------------------|
B|-------------------------------------------------|
G|--5-5-5-5----------------------------------------|
D|--5-5-5-5-5-5-5-5-7-7-7-7-3-3-3-3----------------| 
A|--3-3-3-3-5-5-5-5-7-7-7-7-3-3-3-3----------------|
E|----------3-3-3-3-5-5-5-5-1-1-1-1----------------|
    pare parehong   pilipino

e|-------------------------------------------------|
B|-------------------------------------------------|
G|--5-5-5-5-7-7-7-7---------10-10-10-10------------|
D|--5-5-5-5-7-7-7-7-7-7-7-7-10-10-10-10------------| 
A|--3-3-3-3-5-5-5-5-7-7-7-7--8--8--8--8------------|
E|------------------5-5-5-5------------------------|
      mga tadhanang magkapatid

e|-------------------------------------------------|
B|-------------------------------------------------|
G|--5-5-5-5-7-7-7-7--------------------------------|
D|--5-5-5-5-7-7-7-7-7-7-7-7-3-3-3-3----------------| 
A|--3-3-3-3-5-5-5-5-7-7-7-7-3-3-3-3----------------|
E|------------------5-5-5-5-1-1-1-1----------------|
    isang panata  isang bandila

e|-------------------------------------------------|
B|-------------------------------------------------|
G|--5-5-5-5-7-7-7-7--------------------------------| repeat
D|--5-5-5-5-7-7-7-7-7-7-7-7-3-3-3-3----------------|   3x
A|--3-3-3-3-5-5-5-5-7-7-7-7-3-3-3-3----------------|
E|------------------5-5-5-5-1-1-1-1----------------|
    ohhhh ohhh...     isang bandila

e|-------------------------------------------------|
B|-------------------------------------------------|
G|--5-5-5-5----------------------------------------|
D|--5-5-5-5-5-5-5-5-7-7-7-7-3-3-3-3----------------| 
A|--3-3-3-3-5-5-5-5-7-7-7-7-3-3-3-3----------------|
E|----------3-3-3-3-5-5-5-5-1-1-1-1----------------|
    ohhh ohhh...      isang bandila



e|--------12----15-------12-------12----17-------12-|
B|-----15-------------15-------15-------------15----|
G|--14-------14----14-------14-------14----14-------| 4x
D|--------------------------------------------------|
A|--------------------------------------------------|
E|--------------------------------------------------|

  
e|----------------------|
B|----------------------|
G|----------------------| 3x
D|--7--7--7-5-7-8-5-----| 
A|--7--7--7-5-7-8-5-----|
E|--5--5--5-3-5-6-3-----|  

e|----------------------|
B|----------------------|
G|-5-5-5-5--------------|
D|-5-5-5-5-2-2-2-2------|
A|-3-3-3-3-2-2-2-2------|
E|---------0-0-0-0------|

e|----------------------|
B|----------------------|
G|----------------------| 3x
D|--7--7--7-5-7-8-5-----| 
A|--7--7--7-5-7-8-5-----|
E|--5--5--5-3-5-6-3-----|  

e|----------------------|
B|----------------------|
G|-5-5-5-5--------------|
D|-5-5-5-5-2-6----------|
A|-3-3-3-3-2-6----------|
E|---------0-4----------|

ayos...

~ hi to ol my klasm8s in IDS... hehehe ^_^ ~

            
            
Suggest correction
Creating personal tab
Creating personal tab
You can edit any tab online and save it as your Personal.

You can edit, replace or remove any tab part or add personal notes – all changes will be seen only by you.

Personal tabs can be accessed anytime from any device, even offline.
Learn more »
comments
print report bad tab
19 comments total. Showing first comments.
0 reply
Droped_D 10 Oct 30, 2006 06:39 PM

ayus galing mo
light na PM lng po ba yung sa riff?

0 reply
Droped_D 10 Oct 30, 2006 06:47 PM

sorry double post
parang kulang po yung rhythm guitar

0 reply
Droped_D 10 Oct 30, 2006 06:51 PM

yung sa part po na ganto prng mali po

e|----------------------|
B|----------------------|
G|-5-5-5-5--------------|
D|-5-5-5-5-2-6----------|
A|-3-3-3-3-2-6----------|
E|---------0-4----------|

dapt po ganto:

e|--------------------|
B|--------------------|
G|-5-5---9------------|
D|-5-5---9-6----------|
A|-3-3---7-6----------|
E|---------4----------|

guest
You may want to rate the tab now too:
select rating
Wanna post a correction for this tab? Suggest correction