Oops, an error
Loading. Please wait.

Kisapmata solo tab

version 3
version 3

Whole song

Interactive

565 views 18 this week
1 commentread comment
1 2 3 4 5
3 more votes to show rating
add to favorites
×
Save as Personal and add changes to this tab that will be seen only by you. Learn more ›
×
You can save this tab as Personal to edit and correct it or add notes. All changes will be seen only by you. Learn more »
launch autoscroll
font size
0
reset
how to read this tab
guitar tuner
edit
Autoscroll
slow
fast
+/-
esc
set tempo
stop
Author
Difficulty
Kisapmata
Rivermaya
Transcribed by Monstoy Guitar

Check out for the video tutorial of this song on my YouTube channel!
Please rate, like and subscribe...

YOUTUBE: https://www.youtube.com/channel/UC8UpBLYq8T0mkscMhkMyuAg
FACEBOOK: www.facebook.com/monstoyguitar
WEBSITE: www.monstoyguitar.blogspot.com
TWITTER: twitter.com/monstoyguitar

Standard Tuning

Guitar Solo
e|----14/10-10/5-5---------------------------------------------|
B|------------------8-8-7-8/12-10------------------------------|
G|-------------------------------------------------------------|
D|-------------------------------------------------------------|
A|-------------------------------------------------------------|
E|-------------------------------------------------------------|

e|------------------------------10---10---10---10-10/14--------| 
B|----8-8-7h8-7h8-7h8-7h8-7/8-8----8----8----8-----------------|
G|-------------------------------------------------------------|
D|-------------------------------------------------------------|
A|-------------------------------------------------------------|
E|-------------------------------------------------------------|

e|----14/10-10/5-5---------------------------------------------|
B|------------------8-8-7-8/12-10------------------------------|
G|-------------------------------------------------------------|
D|-------------------------------------------------------------|
A|-------------------------------------------------------------|
E|-------------------------------------------------------------|

e|-------------------------------------------------------------|
B|----8-8h10p8/7-8p7/5-7p5/3-5p3/2-2-3-------------------------|
G|-------------------------------------2/4---------------------|
D|-------------------------------------------------------------|
A|-------------------------------------------------------------|
E|-------------------------------------------------------------|

e|-------------------------------------------------------------|
B|-------------------------------------------------------------|
G|----(4)\2-2/7-7\2-2/9-9\2-2/11-11----------------------------|
D|-------------------------------------------------------------|
A|-------------------------------------------------------------|
E|-------------------------------------------------------------|

e|-------------------------------------------------------------|
B|-------------------------------------------------------------|
G|-----12h11-14-11h12p11---------------------------------------|
D|-----------------------14-12\--------------------------------|
A|-------------------------------------------------------------|
E|-------------------------------------------------------------|

e|-------------------------------------------------------------|
B|-------------------------------------------------------------|
G|-----2/7-7/14-14/21-21\19-19\18-18-18\11-11-11/12-12-12------|
D|-------------------------------------------------------------|
A|-------------------------------------------------------------|
E|-------------------------------------------------------------|

Suggest correction
Creating personal tab
Creating personal tab
You can edit any tab online and save it as your Personal.

You can edit, replace or remove any tab part or add personal notes – all changes will be seen only by you.

Personal tabs can be accessed anytime from any device, even offline.
Learn more »
Give kudos to tab author, rate the tab!
1 2 3 4 5
comments
print report bad tab
1 comment total.
0 reply
matthewbate22 10 Oct 15, 2016 10:04 PM

kung may delay effects, gano po katagal yung delay niyan?

guest
You may want to rate the tab now too:
select rating
Wanna post a correction for this tab? Suggest correction