Oops, an error
Loading. Please wait.

Kung Ayaw Mo Huwag Mo bass

version 1
version 1

Whole song

Interactive

3,573 views 18 this week
no commentswrite comment
1 2 3 4 5
3 more votes to show rating
add to favorites
×
Save as Personal and add changes to this tab that will be seen only by you. Learn more ›
×
You can save this tab as Personal to edit and correct it or add notes. All changes will be seen only by you. Learn more »
launch autoscroll
font size
0
reset
guitar tuner
edit
Autoscroll
slow
fast
+/-
esc
set tempo
stop
Author
Verse 1:

Hari ng dedmahan . . .
G|----------|----------|----------|----------|
D|----------|----------|----------|----------|
A|----------|----------|----------|----------|
E|-33333333-|-33333333-|-33333333-|-33333333-|

. . . magdamag na . . .
G|--------|--------|----------|----------|
D|--------|-3h5p3--|----------|----------|
A|-3h5p3--|------3-|----------|----------|
E|------3-|--------|-33333333-|-33333333-|

Kung di ka tatawagan . . .
G|----------|----------|----------|----------|
D|----------|----------|----------|----------|
A|----------|----------|----------|----------|
E|-33333333-|-33333333-|-33333333-|-33333333-|

. . . maisip mo . . .                 Hindi kita . . .
G|--------|--------|----------|------------|
D|--------|-3h5p3--|----------|------------|
A|-3h5p3--|------3-|----------|--------4-5-|
E|------3-|--------|-33333333-|-3-----5----|

Chorus: (watch out for timing, most notes are on upbeat)

. . . mapipilit
G|----------------------|
D|---7-6----------------|
A|-------7-77-5-55-5-55-|
E|-5--------------------| repeat this pattern 2 more times on:

. . . isipin (00:48)
. . . kita mapipigil (00:57, then:)

. . . iwanan,nag-iisa (1:04)
G|-----------------|
D|---7-6-----------|
A|-------7-77-5-55-|
E|-5---------------|

G|------|-----------|---|---|
D|------|-----5h7p5-|---|---|
A|------|-----------|-8-|---|
E|-12-8-|-----------|---|-1-|

Verse 2: Repeat verse 1 pattern
Chorus 2:

. . . mapipilit
G|----------------------|
D|---7-6----------------|
A|-------7-77-5-55-5-55-|
E|-5--------------------| repeat 4 times

Adlib:  (Same as chorus pattern)

G|----------------------|
D|---7-6----------------|
A|-------7-77-5-55-5-55-|
E|-5--------------------| repeat

Repeat Chorus 2:

. . . mapipilit
G|----------------------|
D|---7-6----------------|
A|-------7-77-5-55-5-55-|
E|-5--------------------| repeat 3 times

G|-----------------7-9-7-9-7-9-7-|
D|---7-6-------------------------|
A|-------7-77-5-55---------------|
E|-5-----------------------------|

Outro:

G|---9-7-6-------|---------------|---------------|---------|
D|-7-------9-8-6-|---9-7-6---6---|---7-6-4-----4-|-----4-6-|
A|---------------|-7-------7---7-|-5-------7-5---|-5-7-----|
E|---------------|---------------|---------------|---------| repeat

or

G|---9-7-6---6---|---------------|---------------|---------|
D|-7-------7---7-|---9-7-6---6---|---7-5-4---7---|-----4-6-|
A|---------------|-7-------7---7-|-5-------5---5-|-5-7-----|
E|---------------|---------------|---------------|---------| repeat


Note: For the Chorus, downbeats also are sometimes played with muted notes. Also, the 
pattern is sometimes played:
G|------------------------------|
D|---7-6------------------------|
A|-------7-77h9p7-5-55-5-55h7p5-|
E|-5----------------------------|

            
            
Suggest correction
Creating personal tab
Creating personal tab
You can edit any tab online and save it as your Personal.

You can edit, replace or remove any tab part or add personal notes – all changes will be seen only by you.

Personal tabs can be accessed anytime from any device, even offline.
Learn more »
Give kudos to tab author, rate the tab!
1 2 3 4 5
comments
print report bad tab
guest
You may want to rate the tab now too:
select rating
Wanna post a correction for this tab? Suggest correction