Oops, an error
Loading. Please wait.

Maskara tab

version 1
version 1

Whole song

1,114 views 1 this week
1 commentread comment
1 2 3 4 5
2 more votes to show rating
add to favorites
×
Save as Personal and add changes to this tab that will be seen only by you. Learn more ›
×
You can save this tab as Personal to edit and correct it or add notes. All changes will be seen only by you. Learn more »
launch autoscroll
font size
0
reset
how to read this tab
guitar tuner
edit
Autoscroll
slow
fast
+/-
esc
set tempo
stop
Title: Maskara
Artist: Rivermaya
Album: BUHAY
Chords by: Mark Jesson Galera

For any comments and Suggestion:

Text Me: 09198408399
Friendster: boybassista@yahoo.com

        This is the new song of Rivermaya from their new album      
                              "BUHAY"
                Kung may mali man,..pakicomment kaagad..tnx!
                      Check my chords Maskara Here in UG.

Tuning: Standard

Intro:
                                         Fill-in
e------------------------------------|-------------|
b------------------------------------|---------6---|
g------------------------------------|-3-4-6-6-----|
D-444h5—-444h5-----333h2---333h2-----|-------------|
A-------5------5---------5--------5--|-------------|
E------------------------------------|-------------|

Verse 1:

Kwento ko sa’yo ngayon..
e----------------------------|
b----------------------------|
g----------------------------|
D---444h5----444h5-----------|
A---------5--------5---------|
E----------------------------|

Wari ba’y parang pabulang..
e----------------------------|
b----------------------------|
g----------------------------|
D---333h2----333h2-----------|
A---------5--------5---------|
E----------------------------|

Simple lang hangarin ko
e----------------------------|
b----------------------------|
g----------------------------|
D---444h5----444h5-----------|
A---------5--------5---------|
E----------------------------|

Ako nalang ang sasalo
e----------------------------|
b----------------------------|
g----------------------------|
D---333h2----333h2-----------|
A---------5--------5---------|
E----------------------------|

Chorus:
Ngayon….
Guitar 1 (clean)
e-------------------------|
b-------------------------|
g---7777-6666--444--222---|
D-------------------------|
A-------------------------|
E-------------------------|

Guitar 2(clean)
Ngayon,….
e---------------------------------------------|
b---------------------------------------------|
g--7777--------------------6666--7777---9999--|
D--7777----4444----6666----xxxx--xxxx---xxxx--|
A--5555----4444----6666----4444--5555---7777--|
E----------2222----3333-----------------------|

Guitar 1:(fill-in)
Mag-ingat sa tao na…            Guitar 2 and Guitar                         
e-------------------------|---------------------------------|
e-------------------------|---------------------------------|
b-------------------------|---------------------------------|
g---7777-6666--444--222---|-----------7777-----------7777---|
D-------------------------|----55555--7777--55555----7777---|
A-------------------------|----55555--5555--55555----6666---|
E-------------------------|----33333--------33333-----------|

Fill-In
Guitar 1
e-----------|
b---------6-|
g--3-4--6---|
D-----------|
A-----------|

Verse:
Si Mr. Personaliteey…
e----------------------------|
b----------------------------|
g----------------------------|
D---444h5----444h5-----------|
A---------5--------5---------|
E----------------------------|

Panay text kung anong gimik mo
e----------------------------|
b----------------------------|
g----------------------------|
D---333h2----333h2-----------|
A---------5--------5---------|
E----------------------------|

Kunyari siya ay bespren mo
e----------------------------|
b----------------------------|
g----------------------------|
D---444h5----444h5-----------|
A---------5--------5---------|
E----------------------------|

Panay ngit, parang aso
e----------------------------|
b----------------------------|
g----------------------------|
D---333h2----333h2-----------|
A---------5--------5---------|
E----------------------------|

Teka wag kang mag-alala
e----------------------------|
b----------------------------|
g----------------------------|
D---444h5----444h5-----------|
A---------5--------5---------|
E----------------------------|

Buksan ang yong mga mata
e----------------------------|
b----------------------------|
g----------------------------|
D---333h2----333h2-----------|
A---------5--------5---------|
E----------------------------|

Baka nasa harapan mo na
e----------------------------|
b----------------------------|
g----------------------------|
D---444h5----444h5-----------|
A---------5--------5---------|
E----------------------------|

Kinakain lang ay salita
e----------------------------|
b----------------------------|
g----------------------------|
D---333h2----333h2-----------|
A---------5--------5---------|
E----------------------------|

Chorus:
Ngayon….
Guitar 1 (clean)
e-------------------------|
b-------------------------|
g---7777-6666--444--222---|
D-------------------------|
A-------------------------|
E-------------------------|

Guitar 2(clean)
Ngayon,….
e---------------------------------------------|
b---------------------------------------------|
g--7777--------------------6666--7777---9999--|
D--7777----4444----6666----xxxx--xxxx---xxxx--|
A--5555----4444----6666----4444--5555---7777--|
E----------2222----3333-----------------------|

Guitar 1:(fill-in)
Mag-ingat sa tao na…       Guitar 2 and Guitar 1.                           
e-------------------------|---------------------------------|
e-------------------------|---------------------------------|
b-------------------------|---------------------------------|
g---7777-6666--444--222---|-----------7777-----------7777---|
D-------------------------|----55555--7777--55555----7777---|
A-------------------------|----55555--5555--55555----6666---|
E-------------------------|----33333--------33333-----------|


For any comments and Suggestion:

Text Me: 09198408399
Friendster: boybassista@yahoo.com

Suggest correction
Creating personal tab
Creating personal tab
You can edit any tab online and save it as your Personal.

You can edit, replace or remove any tab part or add personal notes – all changes will be seen only by you.

Personal tabs can be accessed anytime from any device, even offline.
Learn more »
Give kudos to tab author, rate the tab!
1 2 3 4 5
comments
print report bad tab
1 comment total.
0 reply
cmquilang241 104 Apr 12, 2008 04:06 PM

d ako agree tol... ^^

guest
You may want to rate the tab now too:
select rating
Wanna post a correction for this tab? Suggest correction