Oops, an error
Loading. Please wait.

Maskara tab

version 3
version 3

Whole song

516 views 1 this week
1 commentread comment
1 2 3 4 5
3 more votes to show rating
add to favorites
×
Save as Personal and add changes to this tab that will be seen only by you. Learn more ›
×
You can save this tab as Personal to edit and correct it or add notes. All changes will be seen only by you. Learn more »
launch autoscroll
font size
0
reset
how to read this tab
guitar tuner
edit
Autoscroll
slow
fast
+/-
esc
set tempo
stop
Author
Difficulty
First of all, i just tabbed this using my old acoustic guitar if the tab doesnt work, 
because of my tone, ex.
D|-----------13-16-------|
A|-----14-15-------------|
if that tab didnt work just move it down or up like:
D|-----------8-11-------|
A|-----9-10-------------|
this is just an example, i am sure with the pattern of pressing one sting on a fret but 
sure which fret coz just like i said, its coz i used an old acoustic guitar, its up to 
hearing if it sounds right.

Intro:Drums and Beat

Lead:
e------------------------|----------------------------------------|
b------------------------|----------------------------------------|
g------------------------|----------------------------------------|
D----------13-16---------|----------13-16---16p15p14p13(slowly)---|
A----14-15---------------|----14-15-------------------------------|
E------------------------|----------------------------------------|

Rhythm:

e-------------------------------------------------------------------|
b-------------------------------------------------------------------|
g-------------------------------------------------------------------|
D-44444h5—--3h44444h5-----2h33333p2-----2h33333p2-------------------|
A--------5------------5-------------5-------------5-----------------|
E-------------------------------------------------------------------|

e-------------------------------------------------------------------|
b-------------------------------------------------------------------|
g-------------------------------------------------------------------|
D-3h44444h5—--3h44444h5-----2h33333p2---2h333333p2------------------|
A----------5-----------5-------------5------------5-----------------|
E-------------------------------------------------------------------|

Verse 1:

Rhythm:
Kwento ko sa’yo ngayon..Maupo ka't wag kang lilingon..
e----------------------------------|
b----------------------------------|
g----------------------------------|
D---44444h5----3h44444h5-----------|
A-----------5------------5---------|
E----------------------------------|

Wari ba’y parang pabulang..Mahigit sa sangdaang taon...
e------------------------------------|
b------------------------------------|
g------------------------------------|
D---2h33333p2----2h33333p2-----------|
A------------5-------------5---------|
E------------------------------------|

Simple lang hangarin ko...Sana'y wag mapunta sayo..
e----------------------------------|
b----------------------------------|
g----------------------------------|
D---44444h5----3h44444h5-----------|
A-----------5------------5---------|
E----------------------------------|

Ako nalang ang sasalo....Dahil sanay na ko rito..
e------------------------------------|
b------------------------------------|
g------------------------------------|
D---2h33333p2----2h33333p2-----------|
A------------5-------------5----7~---|
E------------------------------------|

Chorus:
Both guitars(clean)
Ngayon..........Mag-ingat sa tao na may maskara.....
e---------------------2222-3333--|
B---------------------2222-3333--|
G-7777-6/7\4-44444444-3333-0000--|
D-7777-6/7\4-44444444-4444-0000--|
A-5555-4/5\2-22222222-4444-2222--|
E---------------------2222-3333--|

Then..... Mag ingat sa tao na
maskara ah ah....
e-------------------------2222-3333-2~|
b-------------------------2222-3333-3~|
g-77777/8-10101010101010--3333-0000-2~|
D-77777/8-8-8-8-8-8-8-8---4444-0000---|
A-55555/6-8-8-8-8-8-8-8---4444-2222---|
E-------------------------2222-3333---|

Lead:
e------------------------|
b------------------------|
g------------------------|
D----------13-16---------|
A----14-15---------------|
E------------------------|

Verse:
Si Mr. Personaliteey...Makikita mo gabi-gabeyyy
e----------------------------------|
b----------------------------------|
g----------------------------------|
D---44444h5----3h44444h5-----------|
A-----------5------------5---------|
E----------------------------------|

Panay text kung anong gimik mo...(Bakit biglang close na kayo)
e------------------------------------|
b------------------------------------|
g------------------------------------|
D---2h33333p2----2h33333p2-----------|
A------------5-------------5---------|
E------------------------------------|


Kunyari siya ay bespren mo...Dati'y walang paki sayo
e----------------------------------|
b----------------------------------|
g----------------------------------|
D---44444h5----3h44444h5-----------|
A-----------5------------5---------|
E----------------------------------|


Panay ngiti, parang aso...Biglang tinubuan pa ng puso?
e------------------------------------|
b------------------------------------|
g------------------------------------|
D---2h33333p2----2h33333p2-----------|
A------------5-------------5----7~---|
E------------------------------------|

Teka wag kang mag-alala...May isang senyales pa...
e----------------------------------|
b----------------------------------|
g----------------------------------|
D---44444h5----3h44444h5-----------|
A-----------5------------5---------|
E----------------------------------|


Buksan ang yong mga mata...Hindi mahirap makita
e------------------------------------|
b------------------------------------|
g------------------------------------|
D---2h33333h2----2h33333h2-----------|
A------------5-------------5---------|
E------------------------------------|

Baka nasa harapan mo na...Nagmimistulang buwaya
e----------------------------------|
b----------------------------------|
g----------------------------------|
D---44444h5----3h44444h5-----------|
A-----------5------------5---------|
E----------------------------------|


Kinakain lang ay salita...Lumulunok ng kaluluwa...
e------------------------------------|
b------------------------------------|
g------------------------------------|
D---2h33333h2----2h33333h2-----------|
A------------5-------------5----7~---|
E------------------------------------|

Chorus:
Both guitars(clean)
Ngayon..........Mag-ingat sa tao na may maskara.....
e---------------------2222-3333--|
B---------------------2222-3333--|
G-7777-6/7\4-44444444-3333-0000--|
D-7777-6/7\4-44444444-4444-0000--|
A-5555-4/5\2-22222222-4444-2222--|
E---------------------2222-3333--|

Then..... Mag ingat sa tao na
maskara ah ah....
e-------------------------2222-3333-|
b-------------------------2222-3333-|
g-77777/8-10101010101010--3333-0000-|
D-77777/8-8-8-8-8-8-8-8---4444-0000-|
A-55555/6-8-8-8-8-8-8-8---4444-2222-|
E-------------------------2222-3333-|

Dahil...Ngayon....Mag-ingat sa tao na may maskara.....
e---------------------2222-3333--|
B---------------------2222-3333--|
G-7777-6/7\4-44444444-3333-0000--|
D-7777-6/7\4-44444444-4444-0000--|
A-5555-4/5\2-22222222-4444-2222--|
E---------------------2222-3333--|

Then..... Mag ingat sa tao na
maskara ah ah....
e-----------------------------------2222-3333-2~|
b-----------------------------------2222-3333-3~|
g-7777-6/10-141414-121212/14\12\10--3333-0000-2~|
D-7777-6/8---x-x-x--x-x-x/-x\-x\-x--4444-0000---|
A-5555-6/8--121212-101010/12\10\-8--4444-2222---|
E-----------------------------------2222-3333---|

BRIDGE:
(Drums Lang d2)
Maskara.....Ingat Ka....
Maskara.....Ingat Ka....
Maskara.....Ingat Ka....
Maskara.....Ingat Ka....

Last Chorus (higher chords)

Ngayon..........Mag-ingat sa tao na may maskara.....
e--------------------------------------------------------|
B--------------------------------------------------------|
G-11111111-1010-8888888----111111111111-1212121212121212-|
D-12121212-1111-9999999----111111111111-1212121212121212-|
A-12121212-1111-9999999----------------------------------|
E--------------------------------------------------------|

Then..... Mag ingat sa tao na
maskara ah ah....
e--------------------------------------------------------|
b--------------------------------------------------------|
g--------------------------111111111111-1212121212121212-|
D-77777-8-8-8-8-8-8-8-8----111111111111-1212121212121212-|
A-55555-6-8-8-8-8-8-8-8----------------------------------|
E--------------------------------------------------------|

Dahil...Ngayon....Mag-ingat sa tao na may maskara.....
e-------------------------------2--22--2--22--|
b-------------------------------3--33--3--33--|
g--1111111111111111-88888888----2--22--2--22--|
D--1212121212121212-88888888------------------|
A--1212121212121212-99999999------------------|
E---------------------------------------------|

Then..... Mag ingat sa tao na
maskara ah ah....
e--------------------------------------------------------|
b--------------------------------------------------------|
g--------------------------11-break--------11-break------|
D-77777-8-8-8-8-8-8-8-8----11-break--------11-break------|
A-55555-6-8-8-8-8-8-8-8----------------------------------|
E--------------------------------------------------------|

Lead:
e------------------------|  |-----------------------------------------|
b------------------------|  |-----------------------------------------|
g------------------------|2x|-----------------------------------------|
D----------13-16---------|  |----------13-16----16p15p14p13(slowly)---|
A----14-15---------------|  |----14-15--------------------------------|
E------------------------|  |-----------------------------------------|

e------------------------|
b------------------------|
g------------------------|2x
D----------13-16---------|
A----14-15---------------|
E------------------------|

END!!!

            
            
Suggest correction
Creating personal tab
Creating personal tab
You can edit any tab online and save it as your Personal.

You can edit, replace or remove any tab part or add personal notes – all changes will be seen only by you.

Personal tabs can be accessed anytime from any device, even offline.
Learn more »
Give kudos to tab author, rate the tab!
1 2 3 4 5
comments
print report bad tab
1 comment total.
0 reply
markchordz 16,994 Oct 04, 2008 08:00 PM

ano ba yan..other tab nanakawin pa...asar!

guest
You may want to rate the tab now too:
select rating
Wanna post a correction for this tab? Suggest correction