Oops, an error
Loading. Please wait.

Sleep intro tab

version 1
version 1

Intro

Whole song

11,480 views 1 this week
2 commentsread comments
1 2 3 4 5
2 more votes to show rating
add to favorites
×
Save as Personal and add changes to this tab that will be seen only by you. Learn more ›
×
You can save this tab as Personal to edit and correct it or add notes. All changes will be seen only by you. Learn more »
launch autoscroll
font size
0
reset
how to read this tab
guitar tuner
edit
Autoscroll
slow
fast
+/-
esc
set tempo
stop
Author
Actually..
the first time na narinig ko ang song ng RIVERMAYA - SLEEP..
di q pa nun nagustuhan..because of R. Blanco..
the second time..
realizing that iba na ang Front Vocalist nila..
I had a glimpse na mas maganda ang kapalit ni Rico..
so I listen to the song..

2nd time ko pa lng mag submit ng TAB..
email me for your comments about my tabs..

friendster and yahoo messenger: ejanz01@yahoo.com
multiply: http://ejanz01.multiply.com/

Standard Tuning of E: Melody of "D"


Intro:

Guitar 1
e|---------5-----------------------------------------------------------|
B|--7--7-5---5--------7------------------------------------------------|
G|--------------7-7-6---6----------7-----------------------------------|
D|---------------------------9-9-7---7-5-------------------------------|
A|---------------------------------------------------------------------|
E|---------------------------------------------------------------------|


Guitar 2
e|-7-9-10-9-7-5---------------7-9-10-7-7-9-10-5------------------------|
B|---------------7-8-10-8-7--------------------------------------------|
G|--------------------------7------------------------------------------|
D|---------------------------------------------------------------------|
A|---------------------------------------------------------------------|
E|---------------------------------------------------------------------|

e|-7-9-10-9-7-7--------------------10-s12-s14-12-10-9-7--5-------------|
B|---------------7-8-10-8-7-5-s10--------------------------------------|
G|---------------------------------------------------------------------|
D|---------------------------------------------------------------------|
A|---------------------------------------------------------------------|
E|---------------------------------------------------------------------|


simple lng 2..
ung adlib ang isusunod ko..
good luck sa RIVERMAYA at sa NEW ALBUM..

i really love this song..
ejanz01®

P.S.
para sa magaling na "rocky123" a.k.a. "GAGO / ASA"
Suggest correction
Creating personal tab
Creating personal tab
You can edit any tab online and save it as your Personal.

You can edit, replace or remove any tab part or add personal notes – all changes will be seen only by you.

Personal tabs can be accessed anytime from any device, even offline.
Learn more »
Give kudos to tab author, rate the tab!
1 2 3 4 5
comments
print report bad tab
2 comments total.
0 reply
rocky123 16 Aug 10, 2008 06:53 AM

wahahaha... ang galing mo tol!!

stig ka!!

mali tab mo!!!

^_^V wahaahahahahah

+1 reply
ejanz 37 Dec 03, 2008 09:15 PM

sorry po about sa tabular..
bass po un eh..
lagay nyo na lang po sa e=1st string

guest
You may want to rate the tab now too:
select rating
Wanna post a correction for this tab? Suggest correction