Oops, an error
Loading. Please wait.

Sleep chords

version 2
version 2

Whole song

7,336 views 6 this week
no commentswrite comment
1 2 3 4 5
2 more votes to show rating
add to favorites
×
Save as Personal and add changes to this tab that will be seen only by you. Learn more ›
×
You can save this tab as Personal to edit and correct it or add notes. All changes will be seen only by you. Learn more »
launch autoscroll
font size
0
reset
transpose
0
reset
simplify chords
display chords
guitar tuner
edit
Autoscroll
slow
fast
+/-
esc
set tempo
stop
Author
Difficulty
intermediate
Strumming
There is no strumming pattern for this song yet. and get +5 IQ
I've listen this song often..
In my other tab(intro),it is in Major D..
http://www.ultimate-guitar.com/tabs/r/rivermaya/sleep_intro_tab.htm

kaya dapat lahat ng chord niyo sa song na to,
lahat may BAR..
just look the guitar tab of mine sa intro
at sa chords dito..
feel the pluck and the rhythm of the song..

any comment..
PM niyo nlng aq sa YM
ejanz01
at comment sa FRIENDSTER at MULTIPLY
ejanz01@yahoo.com (FS)
http://ejanz01.multiply.com/

enjoy..
para sayo 2 KIMBERLY RAFAEL
i love you so much!! :)

     D
  5th Fret
e|--5--|-----|-----|
B|-----|-----|--7--|
G|-----|-----|--7--|
D|--5--|-----|-----|
A|--5--|-----|-----|
E|--5--|-----|-----|

     A
  5th Fret
e|--5--|-----|-----|
B|--5--|-----|-----|
G|-----|--6--|-----|
D|-----|-----|--7--|
A|-----|-----|--7--|
E|--5--|-----|-----|

     Bm
  7th Fret
e|--7--|-----|-----|
B|-----|--8--|-----|
G|-----|-----|--9--|
D|-----|-----|--9--|
A|--7--|-----|-----|
E|--7--|-----|-----|
     G
  3rd Fret
e|--3--|-----|-----|
B|--3--|-----|-----|
G|-----|--4--|-----|
D|-----|-----|--5--|
A|-----|-----|--5--|
E|--3--|-----|-----|
     F#m
  2nd Fret
e|--2--|-----|-----|
B|--2--|-----|-----|
G|--2--|-----|-----|
D|-----|-----|--4--|
A|-----|-----|--4--|
E|--2--|-----|-----|

     Em
e|-----|-----|-----|
B|-----|-----|-----|
G|-----|-----|-----|
D|-----|--2--|-----|
A|-----|--2--|-----|
E|-----|-----|-----|

     A7
e|-----|-----|-----|
B|-----|--2--|-----|
G|-----|-----|-----|
D|-----|--2--|-----|
A|-----|-----|-----|
E|-----|-----|-----|


Intro:
D-A-Bm-A-G-F#m-G-Em-A7  (4x)

Verse 1.

D              A      Bm   
Tonight’s the first night
A            G          F#m G  Em-A7
You’re no longer in my arms
D         A  Bm
A little colder
A                 G         F#m    G Em-A7   
Nothing but the darkness and the stars

G              F#m
My hand wonders through
                        G    F#m Em-A7
The space where you used to be
G                    F#m        
I really wish that you’d
                   E  A7
Still come home to me

Chorus:

Until then, I’ll 
D-A-Bm-A-G-F#m-G-Em-A7
Sleep
Sleep

Verse:
-pareho sa Verse 1

Remember yesterday
When your smile filled every room
Imagined forever with you
Now you’re gone too soon

G                  F#m
I can fell you calling
G                             F#m Em-A7
There’s no place that I’d rather be
G                   F#m
Just here with you, sleeping
   D-A-G-F#m-Em-A7 (let it ring)
If only in my mind

Chorus:

Until then I’ll sleep
Sleep


Solo: D-A-Bm-A-G-F#m-G-Em-A7 (2x)


I can fell you calling
There’s no place that I’d rather be
Just here with you, sleeping
If only in my mind

Repeat Chorus

Outro:
D-A-Bm-A-G-F#m-G-Em-A7  (2x)
Suggest correction
Creating personal tab
Creating personal tab
You can edit any tab online and save it as your Personal.

You can edit, replace or remove any tab part or add personal notes – all changes will be seen only by you.

Personal tabs can be accessed anytime from any device, even offline.
Learn more »
Give kudos to tab author, rate the tab!
1 2 3 4 5
comments
print report bad tab
guest
You may want to rate the tab now too:
select rating
Wanna post a correction for this tab? Suggest correction