Oops, an error
Loading. Please wait.

Sugal Ng Kapalaran Tab

version 1
version 1

Intro

Whole song

Interactive

936 views 1 this week
no commentswrite comment
1 2 3 4 5
please rate
add to favorites
launch autoscroll
font size
0
reset
how to read this tab
guitar tuner
Tab Pro tools
  • play this tab
  • loop segment
  • change instrument
  • show fretboard
  • metronome
Autoscroll
slow
fast
+/-
esc
set tempo
stop
Contributor
Difficulty
novice
-------------------------------------------------------------------------------
                             Sugal ng Kapalaran - Rivermaya
-------------------------------------------------------------------------------
Tabbed by: beren austria
Email: wberen@yahoo.com or beren_07@yahoo.com

Tuning: EADGBe

Intro:
e|----------------------------------|
B|-9-------9-7-9-12--9-7-9-12-14----|
G|--8-11-8--------------------------|
D|----------------------------------|
A|----------------------------------|
E|----------------------------------|

Verse 1:
     A        C#m            A             C#m        
e|---5---------4-------------5--------------4----------------------|
B|---5---------5-------------5--------------5----------------------|
G|---6---------6-------------6--------------6----------------------|
D|---7---------6-------------7--------------6----------------------|
A|---7---------4-------------7--------------4----------------------|
E|---5-----------------------5-------------------------------------|
  Nabubuhay... panaginip... Kung pwede... katapusan...........

     A        C#m            A             G#m
e|---5---------4-------------5--------------4----------------------|
B|---5---------5-------------5--------------4----------------------|
G|---6---------6-------------6--------------5----------------------|
D|---7---------6-------------7--------------6----------------------|
A|---7---------4-------------7--------------6----------------------|
E|---5-----------------------5--------------4----------------------|
  Parang... ang langit... Ikabit nang... lumipad...

    G                   C       G                    C
e|--3-------------------0-------3--------------------0------------|
B|--3-------------------1-------3--------------------1------------|
G|--0-------------------0-------0--------------------0------------|
D|--0-------------------2-------0--------------------2------------|
A|--2-------------------3-------2--------------------3------------|
E|--3---------------------------3---------------------------------|
  Nakita nang lahat ng gusto... Di akalaing makakamit ito

Pre-Chorus:
    Bm          A          Bm           A
e|--2-----------5-----------2-----------5-------------------------|
B|--3-----------5-----------3-----------5-------------------------|
G|--4-----------6-----------4-----------6-------------------------|
D|--4-----------7-----------4-----------7------------xx-----------|
A|--2-----------7-----------2-----------7------------xx-----------|
E|--------------5-----------------------5------------xx-----------|
                                                      
Chorus:
  F#       A       D       Bm     D     A     Bm
e|-2-------5-------x-------2------x-----5-----2--------------------|
B|-2-------5-------5-------3------5-----5-----3--------------------|
G|-2-------6-------7-------4------7-----6-----4--------------------|
D|-4-------7-------7-------4------7-----7-----4--------------------|
A|-4-------7-------5-------2------5-----7-----2--------------------|
E|-2-------5----------------------------5--------------------------|

  F#       A       D       Bm     D     A     Bm    D
e|-2-------5-------x-------2------x-----5-----2-----x--------------|
B|-2-------5-------5-------3------5-----5-----3-----5--------------|
G|-2-------6-------7-------4------7-----6-----4-----7--------------|
D|-4-------7-------7-------4------7-----7-----4-----7--------------|
A|-4-------7-------5-------2------5-----7-----2-----5--------------|
E|-2-------5----------------------------5--------------------------|

(REPEAT INTRO)

Verse 2:
   D      Bm     D     Bm      D      Bm     D     C#m 
e|--------2-------------2-------------2-------------4---------------|
B|-5------3------5------3------5------3------5------5---------------|
G|-7------4------7------4------7------4------7------6---------------|
D|-7------4------7------4------7------4------7------6---------------|
A|-5------2------5------2------5------2------5------4---------------|
E|------------------------------------------------------------------|

    G                   C       G                    C
e|--3-------------------0-------3--------------------0------------|
B|--3-------------------1-------3--------------------1------------|
G|--0-------------------0-------0--------------------0------------|
D|--0-------------------2-------0--------------------2------------|
A|--2-------------------3-------2--------------------3------------|
E|--3---------------------------3---------------------------------|

(REPEAT PRE-CHORUS)
(REPEAT CHORUS)

Solo:
e|----------------------------11--9-----|
B|---------------------------------12---|
G|------11---------11-------------------|
D|-11-11--11--11-11--11--11-11----------| Repeat 2x
A|--------------------------------------|
E|--------------------------------------|

After 1st Solo
e|------------------------------------------------------------|
B|------------------------------------------------------------|
G|-11-13----------9s111111111111-11s-13131313-s-181818181818--|
D|-x---x---9--11--xsx-x-x-x-x-x--x-s--x-x-x-x-s--x-x-x-x-x-x--|
A|-9--11---9--11--7s9-9-9-9-9-9--9-s-11111111-s-161616161616--|
E|---------7--9-----------------------------------------------|

Chorus:
  F#       A       D       Bm     D     A     Bm
e|-2-------5-------x-------2------x-----5-----2--------------------|
B|-2-------5-------5-------3------5-----5-----3--------------------|
G|-2-------6-------7-------4------7-----6-----4--------------------|
D|-4-------7-------7-------4------7-----7-----4--------------------|
A|-4-------7-------5-------2------5-----7-----2--------------------|
E|-2-------5----------------------------5--------------------------|
Bakit ba bihira matuloy ang panaginip kapag ikaw ay nagising na?
  F#       A       D       Bm     D     A     Bm    D      Bm      D
e|-2-------5-------x-------2------x-----5-----2-----x-------2------x----|
B|-2-------5-------5-------3------5-----5-----3-----5-------3------5----|
G|-2-------6-------7-------4------7-----6-----4-----7-------4------7----|
D|-4-------7-------7-------4------7-----7-----4-----7-------4------7----|
A|-4-------7-------5-------2------5-----7-----2-----5-------2------5----|
E|-2-------5----------------------------5-------------------------------|
Paano kung hindi na magising sa umaga? Dito ba mas liligaya? Mas Liligaya

Outro:
  F#       A       D       Bm       D       A      Bm
e|-2-------5-------x-------2--------x-------5-------2--------------------|
B|-2-------5-------5-------3--------5-------5-------3--------------------|
G|-2-------6-------7-------4--------7-------6-------4--------------------|
D|-4-------7-------7-------4--------7-------7-------4--------------------|
A|-4-------7-------5-------2--------5-------7-------2--------------------|
E|-2-------5--------------------------------5----------------------------|
   ohh  ohhh ohh ohh.............

    A    G#     F#      F#      G#  G#
e|--5-----4------2-------2-------4---4-----------------------------------|
B|--5-----4------2-------2-------4---4-----------------------------------|
G|--6-----5------2-------2-------5---5-----------------------------------|
D|--7-----6------4-------4-------6---6-----------------------------------|
A|--7-----6------4-------4-------6---6-----------------------------------|
E|--5-----4------2-------2-------4---4-----------------------------------|


comments
We did not receive enough feedback on this tab! Please rate:
print report bad tab
1 2 3 4 5
I want to post or [tab]
guest
You may want to rate the tab now too:
select rating
Please do not post tabs as comments. Select "correction" instead!