Oops, an error
Loading. Please wait.

Youll Be Safe Here bass

version 3
version 3

Whole song

Interactive

427 views 3 this week
2 commentsread comments
1 2 3 4 5
x 3
add to favorites
×
Save as Personal and add changes to this tab that will be seen only by you. Learn more ›
×
You can save this tab as Personal to edit and correct it or add notes. All changes will be seen only by you. Learn more »
launch autoscroll
font size
0
reset
guitar tuner
edit
Autoscroll
slow
fast
+/-
esc
set tempo
stop
Author
Difficulty
=---------------------------------------------------------------------------------------------------------------
                                       You'll be safe here - Rivermaya
----------------------------------------------------------------------------------------------------------------

Tabbed by: Januel :)) 
E-mail: januelvanchristian@yahoo.com/gmail.com

Tuning: Standard


Intro :
   B F# C#  G# F# E          --- Up here is only the chords pattern.
G|--------------------------|
D|--------------------------|
A|-------4---------7--------|
E|-7--2-----4--2-/----------|

BASS starts in the last chords in verse 1 its open E 

Verse 2 :
   C#     C#      G#  F#      C#   C#      B-C#  F#      C#               G#  F# E  
G|-------------------------------------------------------------------------------------------|
D|-----------------------------------------9-11-8--------------------------------------------|
A|-44-2-4-4---2-4-----------2-44-2-4---2-4/-------9-9-9\-44-2-4--6/7\6/7\--------------------|
E|-----------2---4-4-2--tapx----------2-----------------------------------4-4-2--0(walking)--|

Chorus :
   B           F#     C#          G#    F# (2x)   E 
G|----------------------------------------------|-----|
D|----------------------------------------------|-----|
A|-2---2-2-4/6\-------4--4-4/7-6----------------|--/7-|
E|----2-2------2--2-2/--4-4-----7-44444\22222\--|-0---|

Verse 3 :
   C#   C#       G#  F#        C#   B-G#-C#-F# G# F#      C# C#  G#-A#-B-Bb-G#-A# G# F# E   E
G|-------------------------------------2/4-6-----------------------------------------------------------|
D|----------------------------------------6-4---------------------/6/8/9---------------------------9\--|
A|-44-2-4-4---2-4--------------44-2-4--------------------2-44-2-4--------------------------7-6-77-9----|
E|-----------2---4-4-2-tapx-2h4----------------4-4-22-2-4---------------6---4--6\4-4-2--0--------------|

Verse 4 :
   C#    C#   E-Eb-B    G# F#      C#    C#    E-Eb-B   G#  F#
G|----------------------------------------------------------------------|
D|----------------------------------------------------------------------|
A|-44-2-4-44-2-4/7-6----------999\-44-2-4-44-2-4/7-6--------------------|
E|------------------7\--4-4-2/----------------------7\--4-4-2-2-2-2-----|
   
   C#    C#   E-Eb-B-Eb-B F# E          E
G|----------------------------------------------------------------------|
D|----------------------------------------------------------------------|
A|-44-2-4-44-2-4/7-6-6------------------\7-(walking)--------------------|
E|------------------7-7\2-2-0-(walking)---------------------------------|

Repeat : 
                            --- Chorus ---
Instrumental :
   B   B        F#           G#-A            G#           G             F#
G|-------------------------------------------------------------------------------------|
D|-------------------------------------------------------------------------------------|
A|-2-2--2-2-tap 2-------------------------------------------------------9-(running)----|
E|-----2-2-------2-2-2-x-2-x-4-5-5-5-x-5-x-5-4-(8 Counts)-3-(8 Counts)-/---------------|

Chorus 2 :
  B    B    F#       C#   E-Eb-B G#    F#      B    B    F#     G#-A          E            F#  
G|-------------------------------------------|-----------------------------------------------------------|
D|-------------------------------------------|-----------------------------------------------------------|
A|-2--2-2-4/6--------4--4-4-7-6--------------|-2--2-2-4/6-----------------4-6-7-(8 Counts)-9-(8 Counts)--| (2x)
E|---2-2-----2-2-2-2/--4-4-----7-44444-22222-|---2-2-----2-2-2-2-4-5-5-5-5-------------------------------|

   B    B   F#       C#   E-Eb-B G#    F#    B      B            F#      G#-A        E           F#  
G|-------------------------------------------------------------------------------------------------------------|
D|-------------------------------------------------------------------------------------------------------------|
A|-2--2-2-4/6--------4--4-4-7-6--------------2-2-2/-14-(5 Counts)\---------------4-6-7-(8 Counts)-9-(8 Counts)-|
E|---2-2-----2-2-2-2/--4-4-----7-44444-22222----------------------2-2-2-2-4-5-5-5------------------------------|

   B         F#      G#-A       E   F#   B  F# 
G|-------------------------------------|------------------------------------------|
D|-------------------------------------|------------------------------------------|
A|-2-2-2-2-2h4-------------------7--9--|-2-/9--( fade let the guitar finish it )--|
E|------------2-2-2-2-4-5-5-5-5-7------|------------------------------------------|

                                 ========== THE END ==========

| the Upper Chords are only patterns
| tap just tap the string
| /  slide up
| \  slide down
| h  hammer-on
| p  pull-off
| ~  vibrato
| +  harmonic
| x  Mute note/ghost note
================================================================================================================

please pakiramdaman nyo lang yung tunog ng bass sa kanta kasi mendyo malaro kasi haha
anyways hope it helps.. please rate nyo na rin thanks :)


Suggest correction
Creating personal tab
Creating personal tab
You can edit any tab online and save it as your Personal.

You can edit, replace or remove any tab part or add personal notes – all changes will be seen only by you.

Personal tabs can be accessed anytime from any device, even offline.
Learn more »
Give kudos to tab author, rate the tab!
1 2 3 4 5
comments
print report bad tab
2 comments total.
0 reply
tinhdovan15274745 10 Dec 15, 2015 05:04 PM

This helps me a lot thanks :)

0 reply
alicanteshamm 12 Dec 27, 2015 11:20 PM

thanks for this :)

guest
You may want to rate the tab now too:
select rating
Wanna post a correction for this tab? Suggest correction