Oops, an error
Loading. Please wait.

The World We Love So Much Tab

version 2
version 2

Whole song

3,834 views 3 this week
no commentswrite comment
1 2 3 4 5
excellent!
x 3
add to favorites
launch autoscroll
font size
0
reset
how to read this tab
guitar tuner
Autoscroll
slow
fast
+/-
esc
set tempo
stop
Help us to improve Ultimate-Guitar.com Take our survey!
×
Author
Difficulty
intermediate
Artist: Rivers Cuomo
Song: The World We Love So Much
Album: Alone: The Home Recordings of Rivers Cuomo

THIS SONG IS TUNED DOWN ONE STEP!!!!

Heres the intro and verse picking pattern:


Eb-------4------------------------------------|
Bb-----5---5----------------------------------|
Gb---6-------6-(x4)---------8-----------------|
Db------------------------9---9----(4)--------|
Ab-4--------------------7-------7-------------|
Eb--------------------0-----------------------|

The two chords for the verse are :

Eb--4---7-----|
Bb--5---9-----|
Gb--6---8-----| And sometimes he picks the note on the 2nd (Bb) string.
Db--6---9-----| You can mess around with it, or just strum those two chord
Ab--4---7-----| shapes.
Eb--x---0-----|

Here is the Chorus:

Eb------------------------------------------------------|
Bb------------------------------------------------------|
Gb--7-77-7-6-4-2-2-2-2-2-2------------------------------|
Db--7-77-7-6-4-2-2-2-2-2-2-4-4-4-4-4-4-4-4-4-4-4-4-4-4--| (x3)
Ab--5-55-5-4-2-0-0-0-0-0-0-4-4-4-4-4-4-4-4-4-4-4-4-4-4--|
Eb-------------------------2-2-2-2-2-2-2-2-2-2-2-2-2-2--|

After playing the chorus part 3 times, play
Eb-----|
Bb-----|
Gb--9--| For two measures, then pause and you're back in the chorus
Db--9--|
Ab--7--|
Eb-----|

Song ends on a strum of:

Eb-----------------------------------------------|
Bb--9--------------------------------------------|
Gb--8--------------------------------------------|
Db--9--------------------------------------------|
Ab--7--------------------------------------------|
Eb--0--------------------------------------------|
Suggest correction
Give kudos to tab author, rate the tab!
1 2 3 4 5
comments
print report bad tab
guest
You may want to rate the tab now too:
select rating
Wanna post a correction for this tab? Suggest correction