Oops, an error
Loading. Please wait.

Wanda Your My Only Love tab

6,075 views 3 this week
3 commentsread comments
1 2 3 4 5
x 8
add to favorites
×
Save as Personal and add changes to this tab that will be seen only by you. Learn more ›
×
You can save this tab as Personal to edit and correct it or add notes. All changes will be seen only by you. Learn more »
launch autoscroll
font size
0
reset
how to read this tab
guitar tuner
edit
Autoscroll
slow
fast
+/-
esc
set tempo
stop
Band:Rivers Cuomo
Song: Wanda Your My Only Love


tabbed by jam9383@yahoo.com

Intro-

e---------------------------------------0--0---------------1------|
B--------4------3-----------------------------3------------1------|
G------2-----------3---------------------------------------2------|
D----3----------------3---0---------2----------------------3------|
A------------------------------1-3---------------3-------3--------|
E--1--------------------------------------------------1-----------|

Verse

e-----------------------------------------------------------------|
B---------------------------1--3----------------------------------|
G--------2---------2------2---------0-3------------3---------2----|
D------3---------3------1---------0------------------------3------|
A-----------------------------------------0h1---4--------3--------|
E--1----------0---------------------------------------------------|

e-----------------------------------------------------------------|
B-----------------------------------------------------------------|
G---------0--2--------0---2---------------------------------------|
D-----------------------------------------------------------------|
A----2-------------1----------------------------------------------|
E-----------------------------------------------------------------|


F          Bb
Except for her

   C             F
She was my true friend
F            Bb
Dancing with me
     C         F
She was my girlfriend
Bb         C      F            Dm
Somebody, please, tell her for me
Gm       C            F
Wanda, you're my only love

F            Fmaj7
You're so lucky
Adim7           Gm
You're family's normal
Gm7          F
Mom drives a big rig  
Gm         C
My daddy's gay

No matter to her
She was my true friend
Dancing with me
She was my girlfriend
Somebody, please, tell her for me
Wanda, you're my only love

Fm          Bbm  C        Fm
Until the day I threw you away
           Bbm         C            Fm
Now I'm alone, and I wish you were home


any comments/corrections contact me, please rate

            
            
Suggest correction
Creating personal tab
Creating personal tab
You can edit any tab online and save it as your Personal.

You can edit, replace or remove any tab part or add personal notes – all changes will be seen only by you.

Personal tabs can be accessed anytime from any device, even offline.
Learn more »
comments
print report bad tab
3 comments total.
0 reply
-andi- 31 Apr 30, 2008 05:12 PM

this is awesome!
put the solo in and i'll give it a five

:D

0 reply
BiscuitsJoe 31 Oct 02, 2008 08:19 PM

this just doesn't sound right at all....

0 reply
hd7373 2,296 Dec 29, 2008 05:07 PM

its standard tuning or try a tuner

guest
You may want to rate the tab now too:
select rating
Wanna post a correction for this tab? Suggest correction