Oops, an error
Loading. Please wait.

What Is This I Find Tab

546 views 1 this week
no commentswrite comment
1 2 3 4 5
excellent!
x 3
add to favorites
launch autoscroll
font size
0
reset
how to read this tab
guitar tuner
Autoscroll
slow
fast
+/-
esc
set tempo
stop
Help us to improve Ultimate-Guitar.com Take our survey!
×
Author
This song is easiest played in standard tuning, however, in the recording it sounds like 
Rivers is playing 1/4 step down, tuned in the middle of Eb and Standard.  It sounds 
fine in standard, just a bit sharp when playing along with the recording.

TABBED BY DOUGLAS KUHN

From "Songs From The Black Hole" by Weezer

Released on "Alone 3" By Rivers Cuomo




What is this I find?


E|--------------------|
B|--------------------|
G|--------------0--3--|
D|-----0--1--3--------|
A|--3-----------------|
E|--------------------|


Under your behind?


E|--------------------|
B|-----------------0--|
G|-----0--3--------0--|
D|--2--------2--3-----|
A|--------------------|
E|--------------------|

Extra huge

E|--------------|
B|--------------|
G|--------------|
D|-----0--1--3--|
A|--3-----------|
E|--------------|


And it's used

E|--------------|
B|--------------|
G|--------------|
D|--------0--1--|
A|--1--3--------|
E|--------------|


I wonder which two of us best of friends opened and used it

E|-----------------------|
B|-----------------------|
G|--0------------------5-|
D|-----3--1--0-----3/5---|
A|--------------3--------|
E|-----------------------|


C           G        F
Jonas you   Know I   Waited
Dm          F           G
Waited til  I couldn't  Take it


C       C7
I was   Alone
F                 Fm
He called on the   Phone


G                          C
And gave me the love you   Wouldn't
Suggest correction
What's this?
You can suggest a correction to this tab. Community and Mods will review your correction and vote to approve or reject it.
comments
We did not receive enough feedback on this tab! Please rate:
print report bad tab
1 2 3 4 5
guest
You may want to rate the tab now too:
select rating
Please do not post tabs as comments. Select "correction" instead!