Oops, an error
Loading. Please wait.

Reality Dream I bass

1,118 views 6 this week
no commentswrite comment
1 2 3 4 5
3 more votes to show rating
add to favorites
×
Save as Personal and add changes to this tab that will be seen only by you. Learn more ›
×
You can save this tab as Personal to edit and correct it or add notes. All changes will be seen only by you. Learn more »
launch autoscroll
font size
0
reset
guitar tuner
edit
Autoscroll
slow
fast
+/-
esc
set tempo
stop
Author
Difficulty
.-----------------------------.
| Tab by Bauti777             |
| bauti777@gmail.com          |
| Artist: Riverside           |
| Song: Reality Dream I       |
| Tuning: Standard (EADG)     |
._____________________________.


     Q    Q    Q    S S S S    Q    Q    Q    S S S S S S  
G||-------------------------|-----------------------------|
D||-------------------------|-----------------------------|
A||-------------------2---2-|-------------------2---2-----|
E||-------------------------|-----------------------------|


  E  S S S S S S S S S S S S S S    S S S S S S S S S S S S S S S S S S  
-----2-----------2---------------|------2-----------2-------------------|
---------2-3-2-------2-3-2-------|----------2-3-2-------2-3-2-----------|
--2----2-------2---2-------2---2-|----2---2-------2---2-------2---2---2-|
---------------------------------|--------------------------------------|


  S S S S S S S S S S S S S S S S    S S S S S S S S S S S S S S S S S S  
------2-----------2---------------|------2-----------2-------------------|
----------2-3-2-------2-3-2-------|----------2-3-2-------2-3-2-----------|
----2---2-------2---2-------2---2-|----2---2-------2---2-------2---2---2-|
----------------------------------|--------------------------------------|


  S S S S S S S S S S S S S S S S    S S S S S S S S S S S S S S S S S S  
------2-----------2---------------|------2-----------2-------------------|
----------2-3-2-------2-3-2-------|----------2-3-2-------2-3-2-----------|
----2---2-------2---2-------2---2-|----2---2-------2---2-------2---2---2-|
----------------------------------|--------------------------------------|


  S S S S S S S S S S S S S S S S    S S S S S S S S S S S S S S S S S S  
------2-----------2---------------|------2-----------2-------------------|
----------2-3-2-------2-3-2-------|----------2-3-2-------2-3-2-----------|
----2---2-------2---2-------2---2-|----2---2-------2---2-------2---2---2-|
----------------------------------|--------------------------------------|


  S S S S S S S S S S S S S S S S    S S S S S S S S S S S S S S S S S S  
------2-----------2---------------|------2-----------2-------------------|
----------2-3-2-------2-3-2-------|----------2-3-2-------2-3-2-----------|
----2---2-------2---2-------2---2-|----2---2-------2---2-------2---2---2-|
----------------------------------|--------------------------------------|


          E  S S S S S S S S S S S S S S S S  
-------|-----2-----------2-------------------|
-------|---------2-3-2-------2-3-2-----------|
-------|--2----2-------2---2-------2---2-----|
-------|-------------------------------------|


  E  S S S S S S S S S S S S S S S S    E  S S S S S S S S S S S S S S S S  
-----2-----------2-------------------|-----2-----------2-------------------|
---------2-3-2-------2-3-2-----------|---------2-3-2-------2-3-2-----------|
--2----2-------2---2-------2---2-----|--2----2-------2---2-------2---2-----|
-------------------------------------|-------------------------------------|


  E  S S S S S S S S S S S S S S S S    E  S S S S S S S S S S S S S S S S  
-----2-----------2-------------------|-----2-----------2-------------------|
---------2-3-2-------2-3-2-----------|---------2-3-2-------2-3-2-----------|
--2----2-------2---2-------2---2---2-|--2----2-------2---2-------2---2-----|
-------------------------------------|-------------------------------------|


  E  S S S S S S S S S S S S S S S S    E  S S S S S S S S S S S S S S S S  
-----2-----------2-------------------|-----2-----------2-------------------|
---------2-3-2-------2-3-2-----------|---------2-3-2-------2-3-2-----------|
--2----2-------2---2-------2---2-----|--2----2-------2---2-------2---2-----|
-------------------------------------|-------------------------------------|


  E  S S S S S S S S S S S S S S S S    E  S S S S S S S S S S S S S S S S  
-----2-----------2-------------------|-----2-----------2-------------------|
---------2-3-2-------2-3-2-----------|---------2-3-2-------2-3-2-----------|
--2----2-------2---2-------2---2---2-|--2----2-------2---2-------2---2-----|
-------------------------------------|-------------------------------------|


  E  S S S S S S S S S S S S S S S S    E  S S S S S S S S S S S S S S S S  
-----2-----------2-------------------|-----2-----------2-------------------|
---------2-3-2-------2-3-2-----------|---------2-3-2-------2-3-2-----------|
--2----2-------2---2-------2---2-----|--2----2-------2---2-------2---2-----|
-------------------------------------|-------------------------------------|


  E  S S S S S S S S S S S S S S S S    E  S S S S S S S S S S S S S S S S  
-----2-----------2-------------------|-----2-----------2-------------------|
---------2-3-2-------2-3-2-----------|---------2-3-2-------2-3-2-----------|
--2----2-------2---2-------2---2---2-|--2----2-------2---2-------2---2-----|
-------------------------------------|-------------------------------------|


  E  S S S S S S S S S S S S S S S S    E  S S S S S S S S S S S S S S S S  
-----2-----------2-------------------|-----2-----------2-------------------|
---------2-3-2-------2-3-2-----------|---------2-3-2-------2-3-2-----------|
--2----2-------2---2-------2---2-----|--2----2-------2---2-------2---2-----|
-------------------------------------|-------------------------------------|


  E  S S S S S S S S S S S S S S S S  
-----2-----------2-------------------|
---------2-3-2-------2-3-2-----------|
--2----2-------2---2-------2---2---2-|
-------------------------------------|


   E    S   S   S   S   S   S   S   S   S   S   S   S  S  S  S S  
-------(2)---------------------(2)-------------------------------|
---------------(2)-(3)-(2)-------------(2)-(3)-(2)---------------|
--(2)------(2)-------------(2)-----(2)-------------(2)---(2)-----|
-----------------------------------------------------------------|


   E    S   S   S   S   S   S   S   S   S   S   S   S  S  S  S S  
-------(2)---------------------(2)-------------------------------|
---------------(2)-(3)-(2)-------------(2)-(3)-(2)---------------|
--(2)------(2)-------------(2)-----(2)-------------(2)---(2)-----|
-----------------------------------------------------------------|


   E    S   S   S   S   S   S   S   S   S   S   S   S  S  S  S S  
-------(2)---------------------(2)-------------------------------|
---------------(2)-(3)-(2)-------------(2)-(3)-(2)---------------|
--(2)------(2)-------------(2)-----(2)-------------(2)---(2)-----|
-----------------------------------------------------------------|


   E    S   S   S   S   S   S   S   S   S   S   S   S  S S S S  
-------(2)---------------------(2)-----------------------------|
---------------(2)-(3)-(2)-------------(2)-(3)-(2)-------------|
--(2)------(2)-------------(2)-----(2)-------------(2)---2---2-|
---------------------------------------------------------------|


  S S S S S S S S S S S S S S S S    S S S S S S S S S S S S S S S S S S  
------2-----------2---------------|------2-----------2-------------------|
----------2-3-2-------2-3-2-------|----------2-3-2-------2-3-2-----------|
----2---2-------2---2-------2---2-|----2---2-------2---2-------2---2---2-|
----------------------------------|--------------------------------------|


  S S S S S S S S S S S S S S S S    S S S S S S S S S S S S S S S S S S  
------2-----------2---------------|------2-----------2-------------------|
----------2-3-2-------2-3-2-------|----------2-3-2-------2-3-2-----------|
----2---2-------2---2-------2---2-|----2---2-------2---2-------2---2---2-|
----------------------------------|--------------------------------------|


  S S S S S S S S S S S S S S S S    S S S S S S S S S S S S S S S S S S  
----------------------------------|--------------------------------------|
----------------------------------|--------------------------------------|
--2-2-2-2-2-2-2-2-2-2-2-2-2-2-2-2-|--0-0-0-0-0-0-0-0-0-0-0-0-0-0-0-0-0-0-|
----------------------------------|--------------------------------------|


  S S S S S S S S S S S S S S S S    S S S S S S S S S S S S S S S S S S  
------2-----------2---------------|------2-----------2-------------------|
----------2-3-2-------2-3-2-------|----------2-3-2-------2-3-2-----------|
----2---2-------2---2-------2---2-|----2---2-------2---2-------2---2---2-|
----------------------------------|--------------------------------------|


  Q    E.  E  E  E  S    Q    E.  E  E  E  S    Q    E.  E  E  E  S  
----------------------|----------------------|----------------------|
----------------------|----------------------|----------------------|
----------------------|----------------------|----------------------|
--7----7---7--7--7--7-|--3----3---3--3--2--2-|--0----0---0--0--0--0-|


  Q    E.  E  E  E  S    Q    E.  E  E  E  S     Q     E.  E  E  E  S  
----------------------|----------------------|------------------------|
----------------------|--9----9---9--9--9--9-|------------------------|
----------------------|----------------------|--10----10---9--9--9--9-|
--0----0---0--0--0--0-|----------------------|------------------------|


  Q    E.  E  E  E  S    Q    E.  E  E  E  S     Q     E.   E   E   S  S  S  
----------------------|----------------------|--12----12---12--12--12-12-14-|
----------------------|----------------------|------------------------------|
--7----7---7--7--7--7-|--7----7---7--7--7--7-|------------------------------|
----------------------|----------------------|------------------------------|


   Q     E.   E   E   S  S  S    Q    E.  E  E  S S S    Q    E.  E  E  S S S  
------------------------------|-----------------------|--9----9---9--9--9-9-7-|
--12----12---12--12--12-12-14-|--7----7---7--7--7-7-9-|-----------------------|
------------------------------|-----------------------|-----------------------|
------------------------------|-----------------------|-----------------------|


   Q     E.   E   E   S  S  S     Q     E.   E   E   S  S  S  
--12----12---12--12--12-12-14-|------------------------------|
------------------------------|--12----12---12--12--12-12-14-|
------------------------------|------------------------------|
------------------------------|------------------------------|


  Q    E.  E  E  S S S    S S S S E  S E  E  S S S    E  E  E  S E  E  S S  S  
-----------------------|--9-9-9-9-9--9-9--9--9-9---|-------------5--4---------|
--7----7---7--7--7-7-9-|-------------------------0-|--------7--5-------5-5s-7-|
-----------------------|---------------------------|-----5--------------------|
-----------------------|---------------------------|--3-----------------------|


  E  E  S   S  S E  S S S S S    E  E  E  S  E  E   S  S   S  
--------7s-10-10-9--7-5-------|------------------------------|
-----7------------------7-5-7-|--------9--7-10--9------------|
--5---------------------------|-----7--------------10-10s-12-|
------------------------------|--5---------------------------|


  E  E  S   S  S E  S S S S S    E  E  E  S E  E  S S  S  
------------------------------|-------------5--4---------|
-----9------------------------|--------7--5-------5-5s-7-|
--7-----7s-10-10-9--7-5-------|-----5--------------------|
------------------------7-5-7-|--3-----------------------|


  E  E  S   S  S E  S S S S S    E  E  E  S  E  E   S  S   S  
--------7s-10-10-9--7-5-------|------------------------------|
-----7------------------7-5-7-|--------9--7-10--9------------|
--5---------------------------|-----7--------------10-10s-12-|
------------------------------|--5---------------------------|


  E  E  S   S  S E  S S S S S    Q    S S S E  E  S S S  
------------------------------|-------------------------|
-----9------------------------|-------------------------|
--7-----7s-10-10-9--7-5-------|-----------------------0-|
------------------------7-5-7-|--3----3-0-2-3--3--3-3---|


  Q    S S S E  E  S S S    Q    S S S E  E  S S S    Q    S S S E  E  S S S  
-------------------------|-------------------------|-------------------------|
---------------------7---|-------------------------|-------------------------|
--5----5-0-3-5--5--5---5-|-------------------------|--7----7---5-7--7--7-7-5-|
-------------------------|--5----5-0-3-5--5--5-5-7-|---------7---------------|


  Q    S S S E  E  S S S    Q    S S S E  E  S S S    Q    S S S E  E  S S S  
-------------------------|-------------------------|-------------------------|
-------------------------|---------------------7---|-------------------------|
-----------------------0-|--5----5-0-3-5--5--5---5-|-------------------------|
--3----3-0-2-3--3--3-3---|-------------------------|--5----5-0-3-5--5--5-5-7-|


  Q    S S S E  E  S S S    S S S S S  S  S S S S S S  S  S  
-------------------------|----------------------------------|
-------------------------|----------------------------------|
--7----7---5-7--7--7-7-5-|----------1h-3p-1---------1h-3p-1-|
---------7---------------|--3-1-3-1---------3-1-3-1---------|


  S S S S S  S  S S S S S S S S S S    S S S S S  S  S S S S S S  S  S  
------------------------------------|----------------------------------|
------------------3-2---2-----------|----------------------------------|
----------1h-3p-1-----3---3-1-3-1---|----------1h-3p-1---------1h-3p-1-|
--3-1-3-1-------------------------1-|--3-1-3-1---------3-1-3-1---------|


  S S S S S  S  S S S S S S S S S S    S S S S S  S  S S S S S S  S  S  
------------------------------------|----------------------------------|
------------------3-2---2-----------|----------------------------------|
----------1h-3p-1-----3---3-1-3-1---|----------3h-5p-3---------3h-5p-3-|
--3-1-3-1-------------------------3-|--5-3-5-3---------5-3-5-3---------|


  S S S S S  S  S S S S S S S S S S    S S S S S  S  S S S S S S  S  S  
------------------------------------|----------------------------------|
------------------5-4---4-----------|----------------------------------|
----------3h-5p-3-----5---5-3-5-3---|----------3h-5p-3---------3h-5p-3-|
--5-3-5-3-------------------------3-|--5-3-5-3---------5-3-5-3---------|


  S S S S S  S  S S S S S S S S S S    S S S S S  S  S S S S S S  S  S  
------------------------------------|----------------------------------|
------------------5-4---4-----------|----------------------------------|
----------3h-5p-3-----5---5-3-5-3---|----------1h-3p-1---------1h-3p-1-|
--5-3-5-3-------------------------1-|--3-1-3-1---------3-1-3-1---------|


  S S S S S  S  S S S S S S S S S S    S S S S S  S  S S S S S S  S  S  
------------------------------------|----------------------------------|
------------------3-2---2-----------|----------------------------------|
----------1h-3p-1-----3---3-1-3-1---|----------1h-3p-1---------1h-3p-1-|
--3-1-3-1-------------------------1-|--3-1-3-1---------3-1-3-1---------|


  S S S S S  S  S S S S S S S S S S    Q    S S S E  E  S S S  
------------------------------------|-------------------------|
------------------3-2---2-----------|-------------------------|
----------1h-3p-1-----3---3-1-3-1---|-------------------------|
--3-1-3-1-------------------------1-|--3----------------------|


  Q    S S S E  E  S S S    Q    S S S E  E  S S S    Q    S S S E  E  S S S  
-------------------------|-------------------------|-------------------------|
---------------------7---|-------------------------|-------------------------|
--5----5-0-3-5--5--5---5-|-------------------------|--7----7---5-7--7--7-7-5-|
-------------------------|--5----5-0-3-5--5--5-5-7-|---------7---------------|


  Q    S S S E  E  S S S    Q    S S S E  E  S S S    Q    S S S E  E  S S S  
-------------------------|-------------------------|-------------------------|
-------------------------|---------------------7---|-------------------------|
-----------------------0-|--5----5-0-3-5--5--5---5-|-------------------------|
--3----3-0-2-3--3--3-3---|-------------------------|--5----5-0-3-5--5--5-5-7-|


  Q    S S S E  E  S S S    E  E  E  S E  E  S S S  
-------------------------|-------------5--4--------|
-------------------------|--------7--5-------5-5-7-|
--7----7---5-7--7--7-7-5-|-----5-------------------|
---------7---------------|--3----------------------|


  E  E  S   S  S E  S S S S S    E  E  E  S E  E  S S S  
--------7s-10-10-9--7-5-------|--------4--2-5--4--0-0-2-|
-----7------------------7-5-7-|-----2-------------------|
--5---------------------------|--0----------------------|
------------------------------|-------------------------|


  E  E  S   S  S E  S S S S S    E  E  E  S E  E  S S S  
------------------------------|-------------5--4--------|
-----9------------------------|--------7--5-------5-5-7-|
--7-----7s-10-10-9--7-5-------|-----5-------------------|
------------------------7-5-7-|--3----------------------|


  E  E  S   S  S E  S S S S S    E  E  E  S E  E  S S S  
--------7s-10-10-9--7-5-------|--------4--2-5--4--0-0-2-|
-----7------------------7-5-7-|-----2-------------------|
--5---------------------------|--0----------------------|
------------------------------|-------------------------|


  E  E  S   S  S E  S S S S S    S S S S S  S  S S S S S S  S  S  
------------------------------|----------------------------------|
-----9------------------------|----------------------------------|
--7-----7s-10-10-9--7-5-------|----------1h-3p-1---------1h-3p-1-|
------------------------7-5-7-|--3-1-3-1---------3-1-3-1---------|


  S S S S S  S  S S S S S S S S S S    S S S S S  S  S S S S S S  S  S  
------------------------------------|----------------------------------|
------------------3-2---2-----------|----------------------------------|
----------1h-3p-1-----3---3-1-3-1---|----------1h-3p-1---------1h-3p-1-|
--3-1-3-1-------------------------1-|--3-1-3-1---------3-1-3-1---------|


  S S S S S  S  S S S S S S S S S S   W        
------------------------------------|-------||
------------------3-2---2-----------|-------||
----------1h-3p-1-----3---3-1-3-1---|-------||
--3-1-3-1-------------------------1-|-3\-----||




Legend
.---------------
| W - whole
| H - half
| Q - quarter
| E - 8th
| S - 16th
| T - 32nd
| X - 64th
| . - note dotted
||-n-|  - n-tuplets
| /  slide up
| \  slide down
| h  hammer-on
| p  pull-off
| ~  vibrato
| +  harmonic
| x  Mute note
.________________
Suggest correction
Creating personal tab
Creating personal tab
You can edit any tab online and save it as your Personal.

You can edit, replace or remove any tab part or add personal notes – all changes will be seen only by you.

Personal tabs can be accessed anytime from any device, even offline.
Learn more »
Give kudos to tab author, rate the tab!
1 2 3 4 5
comments
print report bad tab
guest
You may want to rate the tab now too:
select rating
Wanna post a correction for this tab? Suggest correction