Oops, an error
Loading. Please wait.

Ghostwriter Tab

version 1
version 1

Whole song

Interactive

by RJD2
52,057 views 45 this week
9 commentsread comments
1 2 3 4 5
x 24
add to favorites
launch autoscroll
font size
0
reset
how to read this tab
guitar tuner
×
Best way to learn
"Ghostwriter"
Autoscroll
slow
fast
+/-
esc
set tempo
stop
Author
Difficulty
novice
Although this song isnt entirely written for the guitar, with a little interpretation
it can be very fun to play along to or jam over with a buddy so here is my take on it:

[Intro]
e----------------------------------------------|
B----------------------------------------------|
G----5---5------5---5------5---5------5---5----| X3
D----6---6------6---6------6---6------6---6----|
A--6---6------6---6------5---5------5---5------|
E----------------------------------------------|

e----------------------------------------------|
B----------------------------------------------|
G----5---5------5---5------5---5------5---5----|
D----6---6------6---6------6---6------6---6----|
A--6---6------7---7------8---8------8---8------|
E----------------------------------------------|

                *Beat Starts*
Fig. 1
e----------------------------------------------|
B----------------------------------------------|
G----5---5------5---5------5---5------5---5----| X4
D----6---6------6---6------6---6------6---6----|
A--8---8------7---7------6---6------5---5------|
E----------------------------------------------|

Fig. 2
e----------------------------------------------|
B----------------------------------------------|
G----------------------------------------------|
D----6-----6-6------------6-----6-6------------|
A--4-4---4-6-7---4444---4-4---4-6-7---4444-----|
E----------------------------------------------|

Back to Fig. 1

Fig. 3
e----------------------------------------------|
B----------------------------------------------|
G----------------------------------------------|
D----6-----6-6------------6-----6-6---6666-----|
A--4-4---4-6-7---4444---4-4---4-6-7---7777-----|
E----------------------------------------------|

Fig 4.
e--8---8-----------------11---11----------------|
B--9---9-----------------13---13----------------|
G--10--10-----12-12------13---13------12-12-----| X4
D--10--10-----12-12------13---13------12-12-----|
A--8---8------10-10------11---11------10-10-----|
E-----------------------------------------------|

Back to Fig. 2-> Fig. 1 -> Fig. 3--> Fig. 4

Fade out

So there you are boys and girls, I hope you like it! send any comments or corrections
to zoolake@gmail.com and keep listening to good music! To find out more about RJD2
check out his official website at: http://www.rjd2site.com/
Suggest correction
comments
print report bad tab
9 comments total. Showing first comments.
0 reply
TrakMastaTom 31 Jul 11, 2006 12:27 PM

Good tab.
Thanks for posting it!

0 reply
Virage 69 Aug 08, 2006 10:15 AM

Nice one!

Its all right aswell. :D

+2 reply
UnsignedRecords 767 Nov 09, 2007 05:47 PM

yes, thanks for figuring this one out :)

and i believe the little wah part in the background is just this
chord.
e--8--|
B--9--|
G-10--|
D-----|
A-----|
E-----|

guest
You may want to rate the tab now too:
select rating
Wanna post a correction for this tab? Suggest correction