Oops, an error
Loading. Please wait.

June Tab

by RJD2
3,000 views 1 this week
1 commentread comment
1 2 3 4 5
2 more votes to show rating
add to favorites
launch autoscroll
font size
0
reset
how to read this tab
guitar tuner
Autoscroll
slow
fast
+/-
esc
set tempo
stop
Help us to improve Ultimate-Guitar.com Take our survey!
×
Author
Difficulty
intermediate
-------------------------------------------------------------------------------
                                  JUNE - RJD2
-------------------------------------------------------------------------------
Tabbed by: Robert Piller
Email: nothin7@hotmail.com

Tuning: DGCFAd (down a whole step) if you want it to match the actual pitch
Fun stuff. This is basically a mixture of both guitar parts, with the bass
notes an octave higher (so it's actually playable). 

Riff A:
d|-10-------10-8h10p8-8---7-7-----7h8p7----------------------------------------8----------|
A|----8-----------------8-----8---------8----------------------------------------11-------|
F|------8-----------------0-----0---------7-0---8------8h10p8-8--------10-----------10-10-|
C|--------8-----------------------------------6---10-6----------10-6-8----12-8------------|
G|----------------------------------------------------------------------------------------|
D|----------------------------------------------------------------------------------------|

Riff B:
d|-10-------10-8h10p8-8---7-7-----7h8p7------------------------------------------------|
A|----8-----------------8-----8---------8----------------------------------------------|
F|------8-----------------0-----0---------7-0---8------8h10p8-8--------10--------8-----|
C|--------8-----------------------------------6---10-6----------10-6-8----12-7-6---3/4-|
G|-------------------------------------------------------------------------------------|
D|-------------------------------------------------------------------------------------|

Riff C:
d|-7-7-----7h8p7----------------------------|
A|-----8---------8--------------------------|
F|-0-----0---------7-0---10--------8--------|
C|---------------------8----12-7-6---3/4----|
G|------------------------------------------|
D|------------------------------------------|

Riff D is basically parts of A/B

Here's the song order, roughly:
Riff A: x2
Riff B: x2
Riff C: x4
Riff A: x2
Riff B: x1
Riff D: x1
Riff B: x1
Riff C: x6
Riff D: x2
Riff C: x2
Riff D: until it fades

| /  slide up
| \  slide down
| h  hammer-on
| p  pull-off
| ~  vibrato
| +  harmonic
| x  Mute note
===============================================================================
Suggest correction
Give kudos to tab author, rate the tab!
1 2 3 4 5
comments
print report bad tab
1 comment total.
0 reply
marnie94 31 Sep 12, 2010 07:09 PM

I find it easier to play riff A like this:

Riff A:
d|-10-------10-8h10p8-8---7-7-----7h8p7--------------------------------------8----------|
A|----8-----------------8-----8---------8---------------4h6p4---------6--------11-------|
F|------8-----------------0-----0---------7-0---8--5-----------5---------7--------10-10-|
C|--------8-----------------------------------6------6-----------6-8--------8-----------|
G|--------------------------------------------------------------------------------------|
D|--------------------------------------------------------------------------------------|

guest
You may want to rate the tab now too:
select rating
Wanna post a correction for this tab? Suggest correction