Oops, an error
Loading. Please wait.

Lay Your Love On Me Tab

4,464 views 15 this week
1 commentread comment
1 2 3 4 5
3 more votes to show rating
add to favorites
launch autoscroll
font size
0
reset
how to read this tab
guitar tuner
Autoscroll
slow
fast
+/-
esc
set tempo
stop
Help us to improve Ultimate-Guitar.com Take our survey!
×
Author
Difficulty
intermediate
Lay Your Love On Me by Roachford

Standard tuning: E,A,D,G,B,e


Intro riff and some verse riffs:

e|-------------------------------|
B|-------------------1-----------|
G|-----3------3---------3--------|
D|---3------3-----3-----1--------|
A|-0------1-------0--------------|
E|-------------------------------|

The chord structure for the chorus is A#, F, Gm, D#.

    A#    F     Gm       D#
e|--6--|--1--|--3--|--6-    -11--|
B|--6--|--1--|--3--|--8-    -11--|
G|--7--|--2--|--3--|--8- or -12--|
D|--8--|--3--|--5--|--8-    -13--|
A|--8--|--3--|--5--|--6-    -13--|
E|--6--|--1--|--3--|--6-    -11--|

...also some verses use this chord arrangement but played softer than the chorus.

A#              F
Come on, come on,
F                  Gm  D#
Lay your love on me,
A#              F
Come on, come on,
F                  Gm  D#
Lay your love on me.


Solo? Who needs a solo, the song is great just with these chords and intro riff :).
If you want to learn the solo and fiddly bits in between you will have to look elsewhere.

Enjoy!!!
Suggest correction
Give kudos to tab author, rate the tab!
1 2 3 4 5
comments
print report bad tab
1 comment total.
+1 reply
orionite 10 Jun 25, 2011 02:42 PM

e|-------------------------------|
B|------------------1------------|
G|-----3------3-------2-3--------|
D|---3------3-----3-----1--------|
A|-0-----1--------0--------------|
E|-------------------------------|

Just a slight variation.

guest
You may want to rate the tab now too:
select rating
Wanna post a correction for this tab? Suggest correction