Oops, an error
Loading. Please wait.

Someday chords

22 views 3 this week
no commentswrite comment
1 2 3 4 5
x 3
add to favorites
×
Save as Personal and add changes to this tab that will be seen only by you. Learn more ›
×
You can save this tab as Personal to edit and correct it or add notes. All changes will be seen only by you. Learn more »
launch autoscroll
font size
0
reset
transpose
0
reset
simplify chords
display chords
guitar tuner
edit
Autoscroll
slow
fast
+/-
esc
set tempo
stop
Author
Strumming
There is no strumming pattern for this song yet. and get +5 IQ
Tab by schoben

https://www.youtube.com/watch?v=ngeOWQs20rw


[Verse]
  D     D/B        F#m      G
e-------------------------------------------|
B-----3------3----------2-------3-----------|
G---2------2----2-----2-------0---0---------|
D-0-----------------------------------------|
A-------2-----------------------------------|
E------------------2--------3---------------|
           She was so in love with you

  D     D/B        F#m      G
e------------------------------------------------|
B-----3------3----------2-----------3------------|
G---2------2----2-----2-------0------------0-----|
D-0----------------------------------------------|
A-------2----------------------------------------|
E------------------2--------3--------------------|
           All you ever did was treat her like a fool
  D     D/B        F#m      G
e-------------------------------------------|
B-----3------3----------2-------3-----------|
G---2------2----2-----2-------0---0---------|
D-0-----------------------------------------|
A-------2-----------------------------------|
E------------------2--------3---------------|
           Hurt her self-esteem and pride
  D     D/B        F#m      G
e-------------------------------------------|
B-----3------3----------2-------3-----------|
G---2------2----2-----2-------0---0---------|
D-0-----------------------------------------|
A-------2-----------------------------------|
E------------------2--------3---------------|
           Now she feels a little emptiness inside


[Chorus]
D      D/B F#m  G                   
Someday          love's gonna hurt you 
D      D/B F#m  G
someway
D      D/B F#m  G                  
Someday          love's gonna hurt you 
Bm     A G
someway


[Verse]
  D     D/B        F#m      G
e-------------------------------------------|
B-----3------3----------2-------3-----------|
G---2------2----2-----2-------0---0---------|
D-0-----------------------------------------|
A-------2-----------------------------------|
E------------------2--------3---------------|
                 And you think that you're so tough
  D     D/B        F#m      G
e-------------------------------------------|
B-----3------3----------2-------3-----------|
G---2------2----2-----2-------0---0---------|
D-0-----------------------------------------|
A-------2-----------------------------------|
E------------------2--------3---------------|
                'Cause you say you just don't need nobody's love
  D     D/B        F#m      G
e-------------------------------------------|
B-----3------3----------2-------3-----------|
G---2------2----2-----2-------0---0---------|
D-0-----------------------------------------|
A-------2-----------------------------------|
E------------------2--------3---------------|
                 Only when you're ever gonna learn

Bm         A               G
    Is the day you finally see the tables turn


[Chorus]
D      D/B F#m  G                   
Someday          love's gonna hurt you 
D      D/B F#m  G
someway
D      D/B F#m  G  
Someday           you're gonna regret your ways 
Bm     A G
someday


[Bridge]
A                       G
'Cause when you finally meet someone
                D                  D/B F#m G
That you really want to hold on to
A                      G
Don't you be surprised if she doesn't
                  D   D/B F#m G
Give a damn about you
                                   D   D/B F#m G
And it breaks your little heart in two
D         D/B
Can't run 
F#m        G
can't hide 
D       D/B
someway 
F#m     G
someday


[Chorus]
D      D/B F#m  G                   
Someday          love's gonna hurt you 
D      D/B F#m  G
someway
D      D/B F#m  G  
Someday           you're gonna regret your ways 
Bm     A G
someday
(repeat til end)

            
            
Suggest correction
Creating personal tab
Creating personal tab
You can edit any tab online and save it as your Personal.

You can edit, replace or remove any tab part or add personal notes – all changes will be seen only by you.

Personal tabs can be accessed anytime from any device, even offline.
Learn more »
Give kudos to tab author, rate the tab!
1 2 3 4 5
comments
print report bad tab
guest
You may want to rate the tab now too:
select rating
Wanna post a correction for this tab? Suggest correction