Oops, an error
Loading. Please wait.

Annihilation By The Hands Of God Tab

version 1
version 1

Solo

Interactive

7,646 views 1 this week
1 commentread comment
1 2 3 4 5
accurate
x 4
add to favorites
launch autoscroll
font size
0
reset
how to read this tab
guitar tuner
Autoscroll
slow
fast
+/-
esc
set tempo
stop
Help us to improve Ultimate-Guitar.com Take our survey!
×
Author
Difficulty
Tuning
intermediate
C G C F A D
Annihilation By The Hands Of God

If you want the guitar pro version of this solo i can email it to you just pm me ur 
it wont let me post the guitar pro version for some reason.


                                                               Roadrunner United
Solo Guitar

               E   S  S  H        S S  S  S
C ||-------|--22--19-21---------------19-21-|
G ||-------|--------------------------------|
D#||-------|------------11------------------|
A#||-------|--------------------------------|
F ||-------|--------------------------------|
C ||-------|--------------------------------|


  floyd rose tremolo pulling
                                \1/
                                     |---3---|  |---3---|   |---3---|   |---3---
  S                             E.   S   S   S  S   S   S   S   S   S   S   S
-----------------------------<>21---22p-21p-19-----------------------------------|
-----------------------------------------------22p-21p-19h-21h-22p-21p-19h-21p-1-|
---------------------------------------------------------------------------------|
---------------------------------------------------------------------------------|
---------------------------------------------------------------------------------|
---------------------------------------------------------------------------------|


                          floyd rose again
                          \1/
                          |--------3--------|  |--3--|  |--3--|  |--3--|    |3|
   X  T   T   E   S  S    Q              S  S  S  S  S  S  S  S  S  S  S  X X T
--------------------------------------------------------------------------------|
--------------------------------------------------------------------------------|
---L-21S-19S-18--16-18-<>18-------------19-18-16--------------------------------|
-------------------------------------------------19-18-16-18-19-18-16-18-16---L-|
--------------------------------------------------------------------------------|
--------------------------------------------------------------------------------|


            |--|
   S  S  S  S  E   E   S  S  Q     S S S    Q     E   Q     Q    E
-----------------------------------------|--------------------------|
-----------------------------------------|--------------------------|
-----------------------------------------|--------------------------|
-----16----------------------------------|--9~----9~--7~----L----L--|
--19----19-17-16--17--16-17-16~----L-L-L-|--------------------------|
-----------------------------------------|--------------------------|


   Q      E    Q     Q    E
-----------------------------|
-----------------------------|
-----------------------------|
--12~----12~--11~----L----L--|
-----------------------------|
-----------------------------|


         PM    PM          PM    PM          PM    PM    PM             PM
   |--3--|  |--3--|  |--3--|  |--3--|  |--3--|  |--3--|  |--3--|  |--3--|
   S  S  S  S  S  S  S  S  S  S  S  S  S  S  S  S  S  S  S  S  S  S  S  S
--------------------------------------------------------------------------|
--------------------------------------------------------------------------|
--19-18-16-18-16-18-19-18-16-18-16-18-19-18-16-18-16----16----------------|
-----------------------------------------------------19----19-18-19-18-16-|
--------------------------------------------------------------------------|
--------------------------------------------------------------------------|


         PM    PM          PM    PM          PM    PM    PM             PM
   |--3--|  |--3--|  |--3--|  |--3--|  |--3--|  |--3--|  |--3--|  |--3--|
   S  S  S  S  S  S  S  S  S  S  S  S  S  S  S  S  S  S  S  S  S  S  S  S
--------------------------------------------------------------------------|
--------------------------------------------------------------------------|
--------------------------------------------------------------------------|
--19-18-16-18-16-18-19-18-16-18-16-18-19-18-16-18-16----16----------------|
-----------------------------------------------------19----19-17-19-17-16-|
--------------------------------------------------------------------------|


   T  Q      E  S  T  E.   E.   E      T  Q      E  S  T  E.   E.   E
-----------------------------------|-----------------------------------|
-----------------------------------|-----------------------------------|
-----------------------------------|-----------------------------------|
--11-12~-----L--L--L-12---11-------|--11-11~-----L--L--L-12---11-------|
-------------------------------12--|-------------------------------12--|
-----------------------------------|-----------------------------------|


                         --
  Q     H        Q
----------------------|----||
----------------------|----||
----------------------|----||
----------------------|----||
--9S----0-------------|----||
----------------------|----||


Duration Legend
---------------
W - whole
H - half
Q - quarter
E - 8th
S - 16th
T - 32nd
X - 64th
. - note dotted
|-n-|  - n-tuplets


Tablature Legend
----------------
L - tied note
x - dead note
g - grace note
(n) - ghost note
> - accentuded note
NH - natural harmonic
AH - artificial harmonic
TH - tapped harmonic
SH - semi harmonic
PH - pitch harmonic
h - hammer on
p - pull off
b - bend
br - bendRelease
pb - preBend
pbr - preBendRelease
brb - bendReleaseBend
\n/ - tremolo bar dip
\n - tremolo bar dive
-/n - tremolo bar Release up
/n\ - tremolo bar inverted dip
/n - tremolo bar return
-\n - tremolo bar Release down
S - shift slide
s - legato slide
/ -  slide into from below or out of upwards
\ -  slide into from above or out of downwards
~ - vibrato
W - wide vibrato
tr - trill
TP - tremolo picking
T - tapping
S - slap
P - pop
< - fade in
^ - brush up
v - brush down
Suggest correction
What's this?
You can suggest a correction to this tab. Community and Mods will review your correction and vote to approve or reject it.
comments
print report bad tab
1 comment total.
0 reply
Satan Man 1,448 wrote on November 2 2008, 09:16 am

Looks only half done. Apart from that its good (Y)

guest
You may want to rate the tab now too:
select rating
Please do not post tabs as comments. Select "correction" instead!