Oops, an error
Loading. Please wait.

Army Of The Sun Tab

version 1
version 1

Whole song

Interactive

4,624 views 3 this week
2 commentsread comments
1 2 3 4 5
accurate
x 3
add to favorites
launch autoscroll
font size
0
reset
how to read this tab
guitar tuner
Tab Pro tools
  • play this tab
  • loop segment
  • change instrument
  • show fretboard
  • metronome
×
Best way to learn
"Army Of The Sun"
Autoscroll
slow
fast
+/-
esc
set tempo
stop
Contributor
Difficulty
Tuning
intermediate
B F# B E G# C#
I am pretty sure this is correct...

Intro/Chorus: this is with a whammy petal, u can use the one that digitech makes on the 
RP’s, I use a RP150
e|------------------------------------------0----0-------0-----0------0------0---------------|
B|-------------------------------------------------------------------------------------------|
G|-------------------------------------------------------------------------------------------|
D|-------------------------------------------------------------------------------------------|
A|---121212---7-7/10-10-10h12p10-10-10---10---7/10/7--7/10/7-7/10/7-7/10/7-7/10/7--12-12-12--|
D|-------------------------------------7-----------------------------------------------------|
     ^^^these are 12’s

Verse 1 (guitar one)
e|------------------------------------------------------------------|
B|------------------------------------------------------------------|
G|------------------------------------------------------------------|
D|-7777777777777777--333333---0000000000----------------------------| X3
A|-7777777777777777--333333---0000000000----------------------------|
D|-7777777777777777--333333---0000000000----------------------------|
   PM……………………………………………………………………………………………………………………

Verse 1 (guitar two)
e|--------------------------------------------------------------------|
B|--------------------------------------------------------------------|
G|---171717-161616-121212-999---121212-99-101010-999---222------------|
D|----x-x-x--x-x-x--x-x-x-xxx----x-x-x-xx--x-x-x-xxx---xxx------------| X3
A|---151515-141414-101010-777---101010-77--8-8-8-777---000------------|
D|--------------------------------------------------------------------|


Verse 1 (guitar three) this guitar is using a phaser, the speed is a little high on it
e|-------------------------------------------------------------------------|
B|-------------------------------------------------------------------------|
G|-------------------------------------------------------------------------|
D|--7/---2----14---10---10h12---5-xxx-7---222-333-222----------------------|
A|----------------------------------------------------333------------------|
D|-------------------------------------------------------------------------|


middle part (guitars one)
e|---------------------------------------------------------------------------|
B|---------------------------------------------------------------------------|
G|---------------------------------------------------------------------------|
D|--3/---3/---3/---3/-----7/---7/---7/---7—(7)(7)(7)-------------------------|
A|--3/---3/---3/---3/-----7/---7/---7/---7-----------------------------------|
D|--3/---3/---3/---3/-----7/---7/---7/---7-----------------------------------|

This is the part where he says “I was electrified by your eyes”

middle part (guitars two)
e|---------------------------------------------------------------------------|
B|---------------------------------------------------------------------------|
G|----------------------------------------(2)(2)(2)--------------------------|
D|--3/--------------------7/---7---7---7-------------------------------------|
A|--3/--------------------7/---7---7---7-------------------------------------|
D|--3/--------------------7/---7---7---7-------------------------------------|

middle part (guitars one)
e|---------------------------------------------------------------------------|
B|---------------------------------------------------------------------------|
G|---------------------------------------------------------------------------|
D|--3/---3/---3/---3/-----7/---7/-----1717--1616-----------------------------|
A|--3/---3/---3/---3/-----7/---7/------x-x---x-x-----------------------------|
D|--3/---3/---3/---3/-----7/---7/-----1515--1414-----------------------------|


middle part (guitars two)
e|---------------------------------------------------------------------------|
B|---------------------------------------------------------------------------|
G|---------------------------------------------------------------------------|
D|--3/---3/---3/---3/-----7/---7/--------------------------------------------|
A|--3/---3/---3/---3/-----7/---7/--1010-1010---------------------------------|
D|--3/---3/---3/---3/-----7/---7/--1010--9-9---------------------------------|
                                  PM…………………

middle part (guitars one)
e|---------------------------------------------------------------------------|
B|---------------------------------------------------------------------------|
G|---------------------------------------------------------------------------|
D|--3/---3/---3/---3/-----7/---7/---7/---7—(7)(7)(7)-------------------------|
A|--3/---3/---3/---3/-----7/---7/---7/---7-----------------------------------|
D|--3/---3/---3/---3/-----7/---7/---7/---7-----------------------------------|


middle part (guitars two)
e|---------------------------------------------------------------------------|
B|---------------------------------------------------------------------------|
G|----------------------------------------(2)(2)(2)--------------------------|
D|--3/--------------------7/---7---7---7-------------------------------------|
A|--3/--------------------7/---7---7---7-------------------------------------|
D|--3/--------------------7/---7---7---7-------------------------------------|

middle part (guitars one)
e|------------------------------------------------------------------|
B|------------------------------------------------------------------|
G|------------------------------------------------------------------|
D|--33-33-33-33-----------------12/-------14/-----------------------|
A|--33-33-33-33-----------------12/--X4---14/--X5 faster------------|
D|--33-33-33-33-----------------12/-------14/-----------------------|
    PM………………………

middle part (guitars two)
e|------------------------------------------------------------------|
B|------------------------------------------------------------------|
G|------------------------------------------------------------------|
D|--3/--------------------12/-------14/-----------------------------|
A|--3/--------------------12/--X4---14/--X5 faster------------------|
D|--3/--------------------12/-------14/-----------------------------|


Verse 1 (guitar one)
e|------------------------------------------------------------------|
B|------------------------------------------------------------------|
G|------------------------------------------------------------------|
D|-7777777777777777--333333---0000000000----------------------------| X3
A|-7777777777777777--333333---0000000000----------------------------|
D|-7777777777777777--333333---0000000000----------------------------|
   PM……………………………………………………………………………………………………………………

Verse 1 (guitar two)
e|--------------------------------------------------------------------|
B|--------------------------------------------------------------------|
G|---171717-161616-121212-999---121212-99-101010-999-222--------------|
D|----x-x-x--x-x-x--x-x-x-xxx----x-x-x-xx--x-x-x-xxx-xxx--------------| X3
A|---151515-141414-101010-777---101010-77--8-8-8-777-000--------------|
D|--------------------------------------------------------------------|


Verse 1 (guitar three) this guitar is using a phaser, the speed is a little high on it
e|-------------------------------------------------------------------------|
B|-------------------------------------------------------------------------|
G|-------------------------------------------------------------------------|
D|--7/---2----14---10---10h12---5-xxx-7---222-333-222----------------------|
A|----------------------------------------------------333------------------|
D|-------------------------------------------------------------------------|

middle part (guitars one)
e|---------------------------------------------------------------------------|
B|---------------------------------------------------------------------------|
G|---------------------------------------------------------------------------|
D|--3/---3/---3/---3/-----7/---7/---7/---7—(7)(7)(7)-------------------------|
A|--3/---3/---3/---3/-----7/---7/---7/---7-----------------------------------|
D|--3/---3/---3/---3/-----7/---7/---7/---7-----------------------------------|

This is the part where he says “I was electrified by your eyes”

middle part (guitars two)
e|---------------------------------------------------------------------------|
B|---------------------------------------------------------------------------|
G|----------------------------------------(2)(2)(2)--------------------------|
D|--3/--------------------7/---7---7---7-------------------------------------|
A|--3/--------------------7/---7---7---7-------------------------------------|
D|--3/--------------------7/---7---7---7-------------------------------------|

middle part (guitars one)
e|---------------------------------------------------------------------------|
B|---------------------------------------------------------------------------|
G|---------------------------------------------------------------------------|
D|--3/---3/---3/---3/-----7/---7/-----1717--1616-----------------------------|
A|--3/---3/---3/---3/-----7/---7/------x-x---x-x-----------------------------|
D|--3/---3/---3/---3/-----7/---7/-----1515--1414-----------------------------|


middle part (guitars two)
e|---------------------------------------------------------------------------|
B|---------------------------------------------------------------------------|
G|-----------------------------------1717--1919------------------------------|
D|--3/---3/---3/---3/-----7/---7/-----x-x---x-x------------------------------|
A|--3/---3/---3/---3/-----7/---7/----1515--1717------------------------------|
D|--3/---3/---3/---3/-----7/---7/--------------------------------------------|


middle part (guitars one)
e|---------------------------------------------------------------------------|
B|---------------------------------------------------------------------------|
G|---------------------------------------------------------------------------|
D|--3/---3/---3/---3/-----7/---7/---7/---7—(7)(7)(7)-------------------------|
A|--3/---3/---3/---3/-----7/---7/---7/---7-----------------------------------|
D|--3/---3/---3/---3/-----7/---7/---7/---7-----------------------------------|


middle part (guitars two)
e|---------------------------------------------------------------------------|
B|---------------------------------------------------------------------------|
G|----------------------------------------(2)(2)(2)--------------------------|
D|--3/--------------------7/---7---7---7-------------------------------------|
A|--3/--------------------7/---7---7---7-------------------------------------|
D|--3/--------------------7/---7---7---7-------------------------------------|

middle part (guitars one)
e|------------------------------------------------------------------|
B|------------------------------------------------------------------|
G|------------------------------------------------------------------|
D|--33-33-33-33-----------------12/-------14/-----------------------|
A|--33-33-33-33-----------------12/--X4---14/--X5 faster------------|
D|--33-33-33-33-----------------12/-------14/-----------------------|
    PM………………………

middle part (guitars two)
e|------------------------------------------------------------------|
B|------------------------------------------------------------------|
G|------------------------------------------------------------------|
D|--3/--------------------12/-------12/-----------------------------|
A|--3/--------------------12/--X4---12/--X5 faster------------------|
D|--3/--------------------12/-------12/-----------------------------|

Verse 1 (guitar one)
e|------------------------------------------------------------------|
B|------------------------------------------------------------------|
G|------------------------------------------------------------------|
D|-7777777777777777--333333---0000000000----------------------------| X3
A|-7777777777777777--333333---0000000000----------------------------|
D|-7777777777777777--333333---0000000000----------------------------|
   PM……………………………………………………………………………………………………………………

Verse 1 (guitar two)
e|--------------------------------------------------------------------|
B|--------------------------------------------------------------------|
G|---171717-161616-121212-999---121212-99-101010-999-222--------------|
D|----x-x-x--x-x-x--x-x-x-xxx----x-x-x-xx--x-x-x-xxx-xxx--------------| X3
A|---151515-141414-101010-777---101010-77--8-8-8-777-000--------------|
D|--------------------------------------------------------------------|


Verse 1 (guitar three) this guitar is using a phaser, the speed is a little high on it
e|-------------------------------------------------------------------------|
B|-------------------------------------------------------------------------|
G|-------------------------------------------------------------------------|
D|--7/---2----14---10---10h12---5-xxx-7---222-333-222----------------------|
A|----------------------------------------------------333------------------|
D|-------------------------------------------------------------------------|

Fun part
e|----------------------------------------------------------------------|
B|----------------------------------------------------------------------|
G|----------------------------------------------------------------------|
D|--3---------------7-----------3---------0-----------------------------|
A|--3---------------7-----------3---------0-----------------------------|
D|--3---------------7-----------3---------0-----------------------------|


e|-----------------------------------------------------------------|
B|-----------------------------------------------------------------|
G|-----17-16/------17-16-17-----17-16/------17-16-17bend^----------|
D|-----------------------------------------------------------------|
A|-----------------------------------------------------------------|
D|-----------------------------------------------------------------|

====================================================================
(Both guitars) play at the same time:
====================================================================
e|----------------------------------------------------------------------|
B|----------------------------------------------------------------------|
G|----------------------------------------------------------------------|
D|--5-777---5-777—10-10----5-777---5-777--111---------------------------|
A|--5-777---5-777-10-10----5-777---5-777--111---------------------------|
D|--5-777---5-777-10-10----5-777---5-777--111---------------------------|

(Both guitars)
e|---------------------------------------------------------------------|
B|---------------------------------------------------------------------|
G|---------------------------------------------------------------------|
D|--5-777---5-777—10-10----5-777---0-1-111111--------------------------|
A|--5-777---5-777-10-10----5-777---0-1-111111--------------------------|
D|--5-777---5-777-10-10----5-777---0-1-111111--------------------------|
                                       PM…………

(Guitar one) VERY LIGHT DISTORTION
e|-----------------------------------------------------------------------------|
B|-----------------------------------------------------------------------------|
G|-----------------------------------------------------------------------------|
D|--7-----7-----7-----7-----7-7-----10------10------10------10------10-10------|
A|--8-88--8-88--8-88--8-88--8-8-----12-1212-12-1212-12-1212-12-1212-12-12------|
D|-----------------------------------------------------------------------------|


(Guitar one) VERY LIGHT DISTORTION
e|--------------------------------------------------------------------------------|
B|--------------------------------------------------------------------------------|
G|--------------------------------------------------------------------------------|
D|--7-----7-----7-----7-----7-7-----14------14------14----10------10--9-------9---|
A|--8-88--8-88--8-88--8-88--8-8-----12-1212-12-1212-12----12-1212-12-10-1010-10---|
D|--------------------------------------------------------------------------------|

(Guitar two) NO DISTORTION, this part is clean
e|-------12--------------------------------------------------------------------|
B|-----13----------------------------------------------------------------------|
G|---14------------------------------------------------------------------------|
D|-14--------------------------------------------------------------------------|
A|-----------------------------------------------------------------------------|
D|-----------------------------------------------------------------------------|

(Guitar one) VERY LIGHT DISTORTION
e|-----------------------------------------------------------------------------|
B|-----------------------------------------------------------------------------|
G|-----------------------------------------------------------------------------|
D|--7-----7-----7-----7-----7-7-----10------10------10------10------10-10------|
A|--8-88--8-88--8-88--8-88--8-8-----12-1212-12-1212-12-1212-12-1212-12-12------|
D|-----------------------------------------------------------------------------|

(Guitar two) NO DISTORTION, this part is clean
e|-------12--------------------------------------------------------------------|
B|-----13----------------------------------------------------------------------|
G|---14------------------------------------------------------------------------|
D|-14--------------------------------------------------------------------------|
A|-----------------------------------------------------------------------------|
D|-----------------------------------------------------------------------------|

(Guitar one) VERY LIGHT DISTORTION
e|--------------------------------------------------------------------------------|
B|--------------------------------------------------------------------------------|
G|--------------------------------------------------------------------------------|
D|--7-----7-----7-----7-----7-7-----12------12------12------12------12-12---------|
A|--8-88--8-88--8-88--8-88--8-8-----10-1010-10-1010-10-1010-10-1010-10-10---------|
D|--------------------------------------------------------------------------------|

(Guitar two) NO DISTORTION, this part is clean
e|-------12--------------------------------------------------------------------|
B|-----13----------------------------------------------------------------------|
G|---14------------------------------------------------------------------------|
D|-14--------------------------------------------------------------------------|
A|-----------------------------------------------------------------------------|
D|-----------------------------------------------------------------------------|

(Guitar one) VERY LIGHT DISTORTION
e|--------------------------------------------------------------------------------|
B|--------------------------------------------------------------------------------|
G|--------------------------------------------------------------------------------|
D|-12------12------12--12-12--10------10------10-10-10--7----7----7----7----7-7---|
A|-10-1010-10-1010-10--10-10--12-1212-12-1212-12-12-12--8-88-8-88-8-88-8-88-8-8---|
D|--------------------------------------------------------------------------------|


Verse 1 (guitar one)
e|------------------------------------------------------------------|
B|------------------------------------------------------------------|
G|------------------------------------------------------------------|
D|-7777777777777777--333333---0000000000----------------------------| X3
A|-7777777777777777--333333---0000000000----------------------------|
D|-7777777777777777--333333---0000000000----------------------------|
   PM……………………………………………………………………………………………………………………

Verse 1 (guitar two)
e|--------------------------------------------------------------------|
B|--------------------------------------------------------------------|
G|---171717-161616-121212-999---121212-99-101010-999-222--------------|
D|----x-x-x--x-x-x--x-x-x-xxx----x-x-x-xx--x-x-x-xxx-xxx--------------| X3
A|---151515-141414-101010-777---101010-77--8-8-8-777-000--------------|
D|--------------------------------------------------------------------|

e|-------------------------------------------------------------------------|
B|-------------------------------------------------------------------------|
G|-------------------------------------------------------------------------|
D|--3---------------3---------------5-777/---------------------------------|
A|--3---------------3---------------5-777/---------------------------------|
D|--3---------------3---------------5-777/---------------------------------|


e|-----------------------------------------------------------------|
B|-----------------------------------------------------------------|
G|-----17-16/------17-16-17bend^-----------------------------------|
D|-----------------------------------------------------------------|
A|-----------------------------------------------------------------|
D|-----------------------------------------------------------------|


| /  slide down
|          and up
| h  hammer-on
| p  pull-off
| ~  vibrato
| +  harmonic
| x  Mute note
===============================================================================
comments
We did not receive enough feedback on this tab! Please rate:
print report bad tab
1 2 3 4 5
2 comments total.
0 reply
---langshaw--- wrote on August 22 2007, 04:55 am

good tab! not drop D

0 reply
viperplayer wrote on October 7 2009, 08:42 pm

not so good. you forgot alot of things. the open palm mutes in the verse. the harmonics are on the middle 2 strings on the 3rd fret. just to name a few

I want to post or [tab]
guest
You may want to rate the tab now too:
select rating
Please do not post tabs as comments. Select "correction" instead!