Oops, an error
Loading. Please wait.

Baptized In The Redemptoin bass

275 views 3 this week
1 commentread comment
1 2 3 4 5
2 more votes to show rating
add to favorites
×
Save as Personal and add changes to this tab that will be seen only by you. Learn more ›
×
You can save this tab as Personal to edit and correct it or add notes. All changes will be seen only by you. Learn more »
launch autoscroll
font size
0
reset
guitar tuner
edit
Autoscroll
slow
fast
+/-
esc
set tempo
stop
Author
Song: Baptized in the Redemption
Artist: Roadrunner United (for purposes of this tab)
Album: The Allstar Sessions
Tuning: BEAD
I am pretty sure most of this is rite if you spot any mistakes please e-mail me on
defeatedidiot@yahoo.co.uk. This was pretty strange to tab and the riffs are in the
order they are in the sections

Intro and Chorus:
Wah-wah Guitar X2

D:-----------------------------------------]
A:-----------------------------------------]
E:-----------------------------------------]      X2
B:--2222-3333-1111-33-22-1-----------------]

D:-----------------------]
A:-----------------------]
E:-----------------------]      X3
B:--2-3-1-3-2-1----------]

D:--------------------------------------]
A:--------------------------------------]
E:--------------------------------------]      X1
B:--2-2-2-3-3-3-1-1-3-2-1---------------]

Verse:

D:------------------------------------------------------------------------------]
A:------------------------------------------------------------------------------]
E:------------------------------------------------------------------------------]
B:-22-3-22-3-22-3-22-3-22-3-5-5-22-3-22-3-22-3-22-3-22-3-6-6--------------------]  X2
miss out he little
end bit the second time
D:---------------------------------------------------------------------------|
A:---------------------------------------------------------------------------|
E:-------------------------------------------666-555-2222--------------------|
B:-22-3-22-3-22-3-22-3-22-3-5-5-22-3-22-3-22---------------------------------|


Chorus X 2 play extra bars where needed
Verse X 2 with little bit on the end the second time
Chorus X 2 play extra bars where needed
Verse X 2 with little bit on the end the second time

Behind solo:

D:-----------------------------------------------|
A:-----------------------------------------------|
E:----------------11---11--------11---44---------|
B:-3-00-3-00-3-----3----00-3-00-3----3-----------|
play this for the whole of the solo until the drum roll

Chorus
End
Suggest correction
Creating personal tab
Creating personal tab
You can edit any tab online and save it as your Personal.

You can edit, replace or remove any tab part or add personal notes – all changes will be seen only by you.

Personal tabs can be accessed anytime from any device, even offline.
Learn more »
Give kudos to tab author, rate the tab!
1 2 3 4 5
comments
print report bad tab
1 comment total.
0 reply
Satan Man 1,286 Oct 31, 2006 09:14 AM

its 3333555511113333432 in the intro

guest
You may want to rate the tab now too:
select rating
Wanna post a correction for this tab? Suggest correction