Oops, an error
Loading. Please wait.

Blood And Flames bass

version 1
version 1

Whole song

Interactive

586 views 1 this week
1 commentread comment
1 2 3 4 5
x 3
add to favorites
×
Save as Personal and add changes to this tab that will be seen only by you. Learn more ›
×
You can save this tab as Personal to edit and correct it or add notes. All changes will be seen only by you. Learn more »
launch autoscroll
font size
0
reset
guitar tuner
edit
Autoscroll
slow
fast
+/-
esc
set tempo
stop
Author
Difficulty
intermediate
-------------------------------------------------------------------------------------------------------------
                        Blood And Flames - Roadrunner United
-------------------------------------------------------------------------------------------------------------

Tabbed By : punkextremest
e-mail: jspbasspro@hotmail.co.uk

Tuning: DADG (low to high)

    Ok , this song is the best song off road runners new album and no-one has
   tabbed it for bass yet so i did, its not that hard but i would say for intermediates
   to try it not beginners, just watch out for timing and you should be all right.

  Intro/chorus X2 Just listen to the song for strumming pattern, it basically  follows 
drums.
G|------------------------------------------------------------------------------------|
D|------------------------------------------------------------------------------------|
A|-------------------------------------------------1-1111-111-1111---333-3--33333333--|
D|--0-000-00-0000000--3-3333-333-333--------------------------------------------------|

G|----------------------------------------------------------------------------------|
D|----------------------------------------------------------------------------------|
A|----5-4-3-0-----------------------------------------------------------------------|
D|---------------6-5-3*-------------------------------------------------------------|

   Verse 1. X4
G|----------------------------------------------------------------------------------------------------------|
D|----------------------------------------------------------------------------------------------------------|
A|--------------------------3--------------------------2--------------------------1------------------3-5-3--|
D|-0-00-00-0-0-3h5p0----0-00-00-0-0-3h5p0----0-00-00-0-0-3h5p0----0-00-00-0-0-----------3-5-----------------|
       .   ..   ..    . .                .   ..   ..    . .                  .  ..    .. 
  . .                 .   ..    ..   . .
   pre- chorus. X2
G|------------------------------------------------------------|
D|------------------------------------------------------------|
A|--------0~----------------0~---3-5-3------------------------|
D|--0~---------3-5-6-5--0~-------------3--5-------------------|
     There 12 and 11's not 1's and 2's. X2
G|---------------------------------------------------------------------------------------|
D|---------------------------------------------------------------------------------------|
A|---------------------------------------------------0-3-4-5----3h5---3h5---3h5----------|
D|-12-0-12-11---0-11-10--0-10-9/0-0-3-4-5------------------------------------------------|

   Chorus X2
G|------------------------------------------------------------------------------|
D|------------------------------------------------------------------------------|
A|----------------------------------------------1-1111-111-11--3-3333-3333-333--|
D|--0-000-00-000000-3-3333-333-333----------------------------------------------|
       Verse 2. X2

       Pre- Chorus. X2

 Chorus 2. X2
G|-------------------------------------------------------------------------------------------------|
A|-------------------------------------------------------------------------------------------------|
A|--------------------------------------------1-11-1111-1111--333-3333-3333333---5-4-3-------------|
D|---0-000-00000-0--3-3333-33-3333--------------------------------------------------------6-5-3*~--|
Guitar Break.

   Bridge

    Bass comes in at: 3:20  X3
G|-----------------------------------------------------------------------------------------------------------|
D|-----------------------------------------------------------------------------------------------------------|
A|--5---5/3-------3---3/1--------1---1---------------------------5---5/3-------3----3/1--------1---1---------|
D|----0-----0-0-0---0-----0-0-0---0----3-5-0-0-0-0-0-0-0-0---0-----0-0-0---0-----0-0-0---0----3-5-0-0-0-0-0--|

   After bridge go straight into riff. X4
G|---------------------------------------------------------------------------------|
D|---------------------------------------------------------------------------------|
A|---------------------------------------------------0-3-4-5---3h5------3h5---3h5--|
D|--12-0-12-11--0-11-10--0-10-9/0-0-3-4-5------------------------------------------|

   Chorus 3. X 2
G|----------------------------------------------------------------------------------------|
D|----------------------------------------------------------------------------------------|
A|----------------------------------------1-111-111-11--333-33-3333-333--3-4-5------------|
D|--00-0000-00-00--3-33-3333-33---------------------------------------------------6-5-3*--|

    Then play the bridge riff as many times as needed through the solo and just fade out.
G|----------------------------------------------------------------------------------------------------|
D|----------------------------------------------------------------------------------------------------|
A|--5---5/3-------3---3/1--------1---1------------------------5---5/3-------3/1--------1---1----------|
D|----0-----0-0-0---0-----0-0-0---0---3-5-0-0-0-0-0-0-0---0-----0-0-0-----0-0-0---0----3-5-0-0-0-0-0--|

   There you go, I’m pretty sure its 100% correct if you've got any corrections or want 
to try and
  tab anything else out for you just email me at jspbasspro@hotmail.co.uk and ill try 
get back to you :)


| *  Pinch harmonic
| /  slide up
|   slide down
| h  hammer-on
| p  pull-off
| ~  vibrato
| +  harmonic
| x  Mute note
============================================================================

            
            
Suggest correction
Creating personal tab
Creating personal tab
You can edit any tab online and save it as your Personal.

You can edit, replace or remove any tab part or add personal notes – all changes will be seen only by you.

Personal tabs can be accessed anytime from any device, even offline.
Learn more »
Give kudos to tab author, rate the tab!
1 2 3 4 5
comments
print report bad tab
1 comment total.
0 reply
Satan Man 1,286 Sep 23, 2006 08:55 AM

perfect

guest
You may want to rate the tab now too:
select rating
Wanna post a correction for this tab? Suggest correction