Oops, an error
Loading. Please wait.

Blood And Flames tab

version 2
version 2

Whole song

Interactive

6,067 views 1 this week
2 commentsread comments
1 2 3 4 5
x 8
add to favorites
×
Save as Personal and add changes to this tab that will be seen only by you. Learn more ›
×
You can save this tab as Personal to edit and correct it or add notes. All changes will be seen only by you. Learn more »
launch autoscroll
font size
0
reset
how to read this tab
guitar tuner
edit
Autoscroll
slow
fast
+/-
esc
set tempo
stop
Author
Difficulty
Unregistered
intermediate
Artist - Roadrunner United
Song - Blood & Flames
Album - The All-Star Sessions

Tuning - DADGBe (Low to High)

[Intro] (also the chorus)
One guitar plays this:
e|----------------------------------------------|
B|----------------------------------------------|
G|----------------------------------------------|
D|-2-3~---5/7/5-2~------------------------------|
A|------------------3~--3/5/3~---5-4-3-0--------| x2
D|---------------------------------------6-5-3*-|

The other guitar plays this: 
e|----------------------------------------------|
B|----------------------------------------------|
G|----------------------------------------------|
D|-0~------5~-------3~---5~---------------------|
A|-0~------3~-------1~---3~---------------------| x2
D|-0~------3~-----------------------------------|

I think there is also an acoustic guitar playing here, but this is what I picked up.

[Verse 1]
e|-------------------------------------------------------------------------------------|
B|-------------------------------------------------------------------------------------|
G|-------------------------------------------------------------------------------------|
D|-------------------------------------------------------------------------------------|
A|----------------------3-------------------2------------------1------------3-5-3------| x4
D|-0--0-0--0-0-0--3h5p0---0-0--0-0-0--3h5p0---0-0--0-0-0-3h5p0---0-0--0-0-0-------3--5-|
   .  . .  . . .          . .  . . .          . .  . . .         . .  . . .

[Pre Chorus]
e|-----------------------------------|
B|-----------------------------------|
G|-----------------------------------|
D|----0~---------------0~------------|
A|-0~-0~--3-5-6--5--0~-0~-3-5-3------| x2
D|-0~-----3-5-6--5--0~----------3--5-|

e|--------------------------------------------------------------------------|
B|--------------------------------------------------------------------------|
G|--------------------------------------------------------------------------|
D|--------------------------------------------------------------------------|
A|------------------------------------------------0-3-4-5~---3h5---3h5---3h5| x2
D|-12-0-12-11~--0-11-10~--0-10-9~--0-9/0--0-3-4-5----------0-----0-----0----|
                                                           .     .     .

[Chorus]
Guitar 1:
e|----------------------------------------------|
B|----------------------------------------------|
G|----------------------------------------------|
D|-2-3~---5/7/5-2~------------------------------|
A|------------------3~--3/5/3~---5-4-3-0--------| x2
D|---------------------------------------6-5-3*-|

Guitar 2:
e|----------------------------------------------|
B|----------------------------------------------|
G|----------------------------------------------|
D|-0~------5~-------3~---5~---------------------|
A|-0~------3~-------1~---3~---------------------| x2
D|-0~------3~-----------------------------------|

[Verse 2]
e|-------------------------------------------------------------------------------------|
B|-------------------------------------------------------------------------------------|
G|-------------------------------------------------------------------------------------|
D|-------------------------------------------------------------------------------------|
A|----------------------3-------------------2------------------1------------3-5-3------| x2
D|-0--0-0--0-0-0--3h5p0---0-0--0-0-0--3h5p0---0-0--0-0-0-3h5p0---0-0--0-0-0-------3--5-|
   .  . .  . . .          . .  . . .          . .  . . .         . .  . . .

e|-----------------------------------|
B|-----------------------------------|
G|-----------------------------------|
D|----0~---------------0~------------|
A|-0~-0~--3-5-6--5--0~-0~-3-5-3------| x2
D|-0~-----3-5-6--5--0~----------3--5-|

e|--------------------------------------------------------------------------|
B|--------------------------------------------------------------------------|
G|--------------------------------------------------------------------------|
D|--------------------------------------------------------------------------|
A|------------------------------------------------0-3-4-5~---3h5---3h5---3h5| x2
D|-12-0-12-11~--0-11-10~--0-10-9~--0-9/0--0-3-4-5----------0-----0-----0----|
                                                           .     .     .

[Chorus 2]
Guitar 1:
e|-------------------------------------------------|
B|-------------------------------------------------|
G|-------------------------------------------------|
D|-2-3~---5/7/5-2~------------------------------0~-|
A|------------------3~--3/5/3~---5-4-3-0--------0~-| x2
D|---------------------------------------6-5-3*-0~-|

Guitar 2: 
e|----------------------------------------------|
B|----------------------------------------------|
G|----------------------------------------------|
D|-0~------5--------3~---5~---------------------|
A|-0~------3--------1~---3~---------------------| x2
D|-0~------3------------------------------------|

[Bridge]
e|----------------------------------------------------------|
B|----------------------------------------------------------|
G|----------------------------------------------------------|
D|---7---7/5-------5---5/3-------3---3-------------3h5p3----|
A|---5---5/3-------3---3/1-------1---1-3-5-0-------------3*-|
D|-----0----0-0-0----0-----0-0-0---0---3-5-0-0-0-0----------|
       .    . . .    .     . . .   .         . . .          

e|-------------------------------------------------------|
B|-------------------------------------------------------|
G|-------------------------------------------------------|
D|-7---7/5-------5---5/3-------3---3---------------------|
A|-5---5/3-------3---3/1-------1---1-3-5-0---------------| x3
D|---0-----0-0-0---0-----0-0-0---0---3-5-0-0-0-0-0-0-0-0-| 
     .     . . .   .     . . .   .         . . . . . . .

[Pre-Chorus 2]
e|--------------------------------------------------------------------------|
B|--------------------------------------------------------------------------|
G|--------------------------------------------------------------------------|
D|--------------------------------------------------------------------------|
A|------------------------------------------------0-3-4-5~---3h5---3h5---3h5| x4
D|-12-0-12-11~--0-11-10~--0-10-9~--0-9/0--0-3-4-5----------0-----0-----0----|
                                                           .     .     .

[Chorus 3] (Final one) 
Guitar 1:
e|----------------------------------------------|
B|----------------------------------------------|
G|----------------------------------------------|
D|-2-3~---5/7/5-2~------------------------------|
A|------------------3~--3/5/3~---5-4-3-0--------| x2
D|---------------------------------------6-5-3*-|

Guitar 2:
e|----------------------------------------------|
B|----------------------------------------------|
G|----------------------------------------------|
D|-0~------5~-------3~---5~---------------------|
A|-0~------3~-------1~---3~---------------------| x2
D|-0~------3~-----------------------------------|

[Outro]
e|-------------------------------------------------------|
B|-------------------------------------------------------|
G|-------------------------------------------------------|
D|-7---7/5-------5---5/3-------3---3---------------------|
A|-5---5/3-------3---3/1-------1---1-3-5-0---------------|
D|---0-----0-0-0---0-----0-0-0---0---3-5-0-0-0-0-0-0-0-0-|
     .     . . .   .     . . .   .         . . . . . . .

************************************

|  *  Pinch Harmonic
|  .  Palm Mute
|  h  Hammer-On
|  p  Pull-Off
|  ~  Let Ring
|  /  Slide

************************************

            
            
Suggest correction
Creating personal tab
Creating personal tab
You can edit any tab online and save it as your Personal.

You can edit, replace or remove any tab part or add personal notes – all changes will be seen only by you.

Personal tabs can be accessed anytime from any device, even offline.
Learn more »
comments
print report bad tab
2 comments total.
0 reply
boyan89 812 Dec 20, 2008 08:42 AM

Great tab...so much fun playing this song!

0 reply
KillswitchRocky 10 May 25, 2009 07:47 AM

Really Brilliant spot on

guest
Wanna post a correction for this tab? Suggest correction