Oops, an error
Loading. Please wait.

Blood And Flames tab

version 4
version 4

Whole song

Interactive

2,434 views 9 this week
no commentswrite comment
1 2 3 4 5
x 3
add to favorites
×
Save as Personal and add changes to this tab that will be seen only by you. Learn more ›
×
You can save this tab as Personal to edit and correct it or add notes. All changes will be seen only by you. Learn more »
launch autoscroll
font size
0
reset
how to read this tab
guitar tuner
edit
Autoscroll
slow
fast
+/-
esc
set tempo
stop
Author
Difficulty
Tabbers playing skills
advanced +
#----------------------------------PLEASE NOTE---------------------------------#
#This file is the author's own work and represents their interpretation of the #
#song. You may only use this file for private study, scholarship, or research. #
#------------------------------------------------------------------------------#

BLOOD & FLAMES
As recorded by Roadrunner United
(From the 2005 Album THE ALL-STAR SESSIONS)


Words by Jesse David Leach Music by Matthew K. Heafy

 

Gtr I (D A D G B E) - 'Matt Heafy Rhythm'
Gtr II (D A D G B E) - 'Josh Rand'
Gtr III (D A D G B E) - 'Matt Heafy Acoustic'
Gtr IV (D A D G B E) - 'Matt Heafy Solo I'
Gtr V (D A D G B E) - 'Matt Heafy Solo II'


   Intro
    Q=142
    D5
   4/4
    Gtrs I, II
     W                  +W
||-------------------|------------------------|
||o------------------|------------------------|
||-------------------|------------------------|
||---0---------------|--(0)-------------------|
||o--0---------------|--(0)-------------------|
||---0---------------|--(0)-------------------|
|
|   Gtr III
|    H       Q   E E    +E  E Q  Q    E    E
||---1-------1---x-1-|--(1)-x-1--1----x----1--|
||o--3-------3---x-3-|--(3)-x-3--3----x----3--|
||---2-------2---x-2-|--(2)-x-2--2----x----2--|
||---0-------0---x-0-|--(0)-x-0--0----x----0--|
||o------------------|------------------------|
||-------------------|------------------------|
|
|   Gtr IV
|    H       H          +H.           E    E
||-------------------|------------------------|
||o------------------|------------------------|
||--(9)----(10)------|-(10)---------(12)s(14)-|
||-------------------|------------------------|
||o--7-------8-------|--(8)----------10s==12--|
||-------------------|------------------------|


  F5
    W                      +W
|------------------------|--------------------|
|------------------------|--------------------|
|------------------------|--------------------|
|---3--------------------|-(3)----------------|
|---3--------------------|-(3)----------------|
|---3--------------------|-(3)----------------|
|
|   H            Q   E E   +E  E Q  Q   E  E
|---3------------3---x-3-|-(3)-x-3--3---x--3--|
|---3------------3---x-3-|-(3)-x-3--3---x--3--|
|---5------------5---x-5-|-(5)-x-5--5---x--5--|
|---5------------5---x-5-|-(5)-x-5--5---x--5--|
|---3------------3---x-3-|-(3)-x-3--3---x--3--|
|------------------------|--------------------|
|
|   Q.    +E     H         +H.          Q
|------------------------|--------------------|
|------------------------|--------------------|
|-(12)---(12)\-/(9)------|-(9)---------(7)----|
|------------------------|--------------------|
|--10----(10)\--/7-------|-(7)----------5-----|
|------------------------|--------------------|


  Bb5
   W                +W
|-----------------|---------------------|
|-----------------|---------------------|
|--3--------------|-(3)-----------------|
|--3--------------|-(3)-----------------|
|--1--------------|-(1)-----------------|
|-----------------|---------------------|
|
|  H      Q   E E   +E  E Q  Q   E   E
|--1------1---x-1-|-(1)-x-1--1---x---1--|
|--1------1---x-1-|-(1)-x-1--1---x---1--|
|--3------3---x-3-|-(3)-x-3--3---x---3--|
|--3------3---x-3-|-(3)-x-3--3---x---3--|
|--1------1---x-1-|-(1)-x-1--1---x---1--|
|-----------------|---------------------|
|
|  H      H         +H.          E   E
|-----------------|---------------------|
|-----------------|---------------------|
|-(3)----(3)------|-(3)---------(5)s(7)-|
|-----------------|---------------------|
|--1------1-------|-(1)----------3s==5--|
|-----------------|---------------------|


  C5
   W              +W
|---------------|----------------------||
|---------------|---------------------o||
|--5------------|-(5)------------------||
|--5------------|-(5)------------------||
|--3------------|-(3)-----------------o||
|---------------|----------------------||
|
|  H     Q  E E   +E  E Q   Q    E  E
|--3-----3--x-3-|-(3)-x-3---3----x--3--||
|--3-----3--x-3-|-(3)-x-3---3----x--3-o||
|--5-----5--x-5-|-(5)-x-5---5----x--5--||
|--5-----5--x-5-|-(5)-x-5---5----x--5--||
|--3-----3--x-3-|-(3)-x-3---3----x--3-o||
|---------------|----------------------||
|
|                                ~~~
|  W               E  E E E E E  Q
|---------------|----------------------||
|---------------|---------------------o||
|-(5)-----------|----------------------||
|---------------|----------------------||
|--3------------|--5--4-3-------[3]---o||
|---------------|---------7-6-5--------||


   Pre-Verse
    Q=142(8=s8)
    D5          N.C.      D5        N.C.
    Gtr I
    PM--------|           PM------|
                |-3-|               |-3-|
    E E E E E E E E E   E E E E E E E E E
||--------------------|-------------------|
||o-------------------|-------------------|
||--------------------|-------------------|
||--------------------|-------------------|
||o-0-0-0-0-0-0-------|-3-0-0-0-0-0-------|
||--0-0-0-0-0-0-0h3h5-|---0-0-0-0-0-0h3h5-|
|
|   Gtr II
|   PM--------|           PM------|
|               |-3-|               |-3-|
|   E E E E E E E E E   E E E E E E E E E
||--------------------|-------------------|
||o-------------------|-------------------|
||--------------------|-------------------|
||--------------------|-------------------|
||o-0-0-0-0-0-0-------|-3-0-0-0-0-0-------|
||--0-0-0-0-0-0-0h3h5-|---0-0-0-0-0-0h3h5-|


    D5        N.C.      D5    C5D5C5F5   G5
                     6/4
    PM------|           PM--|
              |-3-|
  E E E E E E E E E   E E E E E E E Q.   Q
|-------------------|--------------------------||
|-------------------|-------------------------o||
|-------------------|--------------------------||
|-------------------|---------5s7-5------------||
|-2-0-0-0-0-0-------|-1-0-0-0-3s5-3-3----5----o||
|---0-0-0-0-0-0h3h5-|---0-0-0-------3----5-----||
|
|   PM------|           PM--|       ~~
|             |-3-|
| E E E E E E E E E   E E E E E E E Q.   Q
|-------------------|--------------------------||
|-------------------|-------------------------o||
|-------------------|--------------------------||
|-------------------|--------------------------||
|-2-0-0-0-0-0-------|-1-0-0-0-7s8-7-----------o||
|---0-0-0-0-0-0h3h5-|---0-0-0-------7----8-----||


   Verse
    $
    D5          N.C.      D5        N.C.
   4/4
    PM--------|           PM------|
                |-3-|               |-3-|
    E E E E E E E E E   E E E E E E E E E
||--------------------|-------------------|
||o-------------------|-------------------|
||--------------------|-------------------|
||--------------------|-------------------|
||o-0-0-0-0-0-0-------|-3-0-0-0-0-0-------|
||--0-0-0-0-0-0-0h3h5-|---0-0-0-0-0-0h3h5-|
|
|   PM--------|           PM------|
|               |-3-|               |-3-|
|   E E E E E E E E E   E E E E E E E E E
||--------------------|-------------------|
||o-------------------|-------------------|
||--------------------|-------------------|
||--------------------|-------------------|
||o-0-0-0-0-0-0-------|-3-0-0-0-0-0-------|
||--0-0-0-0-0-0-0h3h5-|---0-0-0-0-0-0h3h5-|


    D5        N.C.      D5    C5D5C5F5   G5
                     6/4
    PM------|           PM--|
              |-3-|
  E E E E E E E E E   E E E E E E E Q.   Q
|-------------------|-------------------------||
|-------------------|------------------------o||
|-------------------|-------------------------||
|-------------------|---------5s7-5-----------||
|-2-0-0-0-0-0-------|-1-0-0-0-3s5-3-3----5---o||
|---0-0-0-0-0-0h3h5-|---0-0-0-------3----5----||
|
|   PM------|           PM--|       ~~
|             |-3-|
| E E E E E E E E E   E E E E E E E Q.   Q
|-------------------|-------------------------||
|-------------------|------------------------o||
|-------------------|-------------------------||
|-------------------|-------------------------||
|-2-0-0-0-0-0-------|-1-0-0-0-7s8-7----------o||
|---0-0-0-0-0-0h3h5-|---0-0-0-------7----8----||


    D5                  G5Ab5    G5   D5            N.C.  F5      G5
   4/4
    H     H       +E  E E E +Q   Q    H     H       E E E E  +Q   Q
||--------------|-------------------|-------------|--------------------||
||o-------3-----|-(3)---------------|-------3-----|-------------------o||
||--------2-----|-(2)---------------|-------2-----|--------------------||
||--0----(0)----|-(0)---------------|-0----(0)----|--------------------||
||o-0----(0)----|-(0)-0h5-6-(6)--5--|-0----(0)----|-3h5p3-3--(3)--5---o||
||--0----(0)----|-(0)-0h5-6-(6)--5--|-0----(0)----|-------3--(3)--5----||
|
|                                                         ~~
|   H     H       +E  E E E +Q   Q    H     H       E E E Q.      Q
||--------------|-------------------|-------------|--------------------||
||o-------3-----|-(3)---------------|-------3-----|-------------------o||
||--------2-----|-(2)---------------|-------2-----|--------------------||
||--0----(0)----|-(0)---------------|-0----(0)----|--------------------||
||o-0----(0)----|-(0)-0h5-6-(6)--5--|-0----(0)----|-7s8-7-------------o||
||--0----(0)----|-(0)-0h5-6-(6)--5--|-0----(0)----|-------7-------8----||


   Pre-Chorus
    Q=142
    N.C.
              ~~~~~~~      ~~~~~~~~~     ~~~~~~
      E E  E  E  +E  E  E  E    +E  E  E E +E  E Q
||---------------------------|-----------------------|
||o--------------------------|-----------------------|
||---------------------------|-----------------------|
||---------------------------|-----------------------|
||o--------------------------|-----------------------|
||--/12-0-12-11-(11)-0-11-10-|-(10)-0-10-9-(9)-0-9\--|
|
|             ~~~~~~~      ~~~~~~~~~     ~~~~~~
|     E E  E  E  +E  E  E  E    +E  E  E E +E  E Q
||---------------------------|-----------------------|
||o--------------------------|-----------------------|
||---------------------------|-----------------------|
||---------------------------|-----------------------|
||o--------------------------|-----------------------|
||--/12-0-12-11-(11)-0-11-10-|-(10)-0-10-9-(9)-0-9\--|


                ~~~~~~~~
  E E E E E E E E   +E  S S S S S S S S S S S S S S
|-----------------|-----------------------------------||
|-----------------|----------------------------------o||
|-----------------|-----------------------------------||
|-----------------|-----------------------------------||
|---------0-3-4-5-|-(5)-x-x-3h5-x-x-3h5-x-x-3h5-x-x--o||
|-0-3-4-5---------|-----------------------------------||
|
|               ~~~~~~~~
| E E E E E E E E   +E  S S S S S S S S S S S S S S
|-----------------|-----------------------------------||
|-----------------|----------------------------------o||
|-----------------|-----------------------------------||
|-----------------|-----------------------------------||
|---------0-3-4-5-|-(5)-x-x-7h8-x-x-7h8-x-x-7h8-x-x--o||
|-0-3-4-5---------|-----------------------------------||


   Chorus
    $$
    D5
    Gtrs I, II
     W                  +W
||-------------------|------------------------|
||o------------------|------------------------|
||-------------------|------------------------|
||---0---------------|--(0)-------------------|
||o--0---------------|--(0)-------------------|
||---0---------------|--(0)-------------------|
|
|   Gtr III
|    H       Q   E E    +E  E Q  Q    E    E
||---1-------1---x-1-|--(1)-x-1--1----x----1--|
||o--3-------3---x-3-|--(3)-x-3--3----x----3--|
||---2-------2---x-2-|--(2)-x-2--2----x----2--|
||---0-------0---x-0-|--(0)-x-0--0----x----0--|
||o------------------|------------------------|
||-------------------|------------------------|
|
|   Gtr IV
|    H       H          +H.           E    E
||-------------------|------------------------|
||o------------------|------------------------|
||--(9)----(10)------|-(10)---------(12)s(14)-|
||-------------------|------------------------|
||o--7-------8-------|--(8)----------10s==12--|
||-------------------|------------------------|


  F5
    W                      +W
|------------------------|--------------------|
|------------------------|--------------------|
|------------------------|--------------------|
|---3--------------------|-(3)----------------|
|---3--------------------|-(3)----------------|
|---3--------------------|-(3)----------------|
|
|   H            Q   E E   +E  E Q  Q   E  E
|---3------------3---x-3-|-(3)-x-3--3---x--3--|
|---3------------3---x-3-|-(3)-x-3--3---x--3--|
|---5------------5---x-5-|-(5)-x-5--5---x--5--|
|---5------------5---x-5-|-(5)-x-5--5---x--5--|
|---3------------3---x-3-|-(3)-x-3--3---x--3--|
|------------------------|--------------------|
|
|   Q.    +E     H         +H.          Q
|------------------------|--------------------|
|------------------------|--------------------|
|-(12)---(12)\-/(9)------|-(9)---------(7)----|
|------------------------|--------------------|
|--10----(10)\--/7-------|-(7)----------5-----|
|------------------------|--------------------|


  Bb5
   W                +W
|-----------------|---------------------|
|-----------------|---------------------|
|--3--------------|-(3)-----------------|
|--3--------------|-(3)-----------------|
|--1--------------|-(1)-----------------|
|-----------------|---------------------|
|
|  H      Q   E E   +E  E Q  Q   E   E
|--1------1---x-1-|-(1)-x-1--1---x---1--|
|--1------1---x-1-|-(1)-x-1--1---x---1--|
|--3------3---x-3-|-(3)-x-3--3---x---3--|
|--3------3---x-3-|-(3)-x-3--3---x---3--|
|--1------1---x-1-|-(1)-x-1--1---x---1--|
|-----------------|---------------------|
|
|  H      H         +H.          E   E
|-----------------|---------------------|
|-----------------|---------------------|
|-(3)----(3)------|-(3)---------(5)s(7)-|
|-----------------|---------------------|
|--1------1-------|-(1)----------3s==5--|
|-----------------|---------------------|


                                D.S.
                                D.S.
  C5
   W              +W
|---------------|----------------------||
|---------------|---------------------o||
|--5------------|-(5)------------------||
|--5------------|-(5)------------------||
|--3------------|-(3)-----------------o||
|---------------|----------------------||
|
|  H     Q  E E   +E  E Q   Q    E  E
|--3-----3--x-3-|-(3)-x-3---3----x--3--||
|--3-----3--x-3-|-(3)-x-3---3----x--3-o||
|--5-----5--x-5-|-(5)-x-5---5----x--5--||
|--5-----5--x-5-|-(5)-x-5---5----x--5--||
|--3-----3--x-3-|-(3)-x-3---3----x--3-o||
|---------------|----------------------||
|
|                                ~~~
|  W               E  E E E E E  Q
|---------------|----------------------||
|---------------|---------------------o||
|-(5)-----------|----------------------||
|---------------|----------------------||
|--3------------|--5--4-3-------[3]---o||
|---------------|---------7-6-5--------||


 Interlude
  D5                      D5      C5    D5
  Gtrs I, II
                              PM        PM--|
  W           W            E  E E E +E  E E E
|----------|------------|---------------------|
|----------|------------|---------------------|
|----------|------------|---------------------|
|----------|------------|--7----7-5-(5)-------|
|----------|------------|--5--0-5-3-(3)-0-0-0-|
|----------|------------|-----0---------0-0-0-|
|
| Gtr IV
| W          +W           +W
|----------|------------|---------------------|
|----------|------------|---------------------|
|----------|------------|---------------------|
|-0--------|-(0)--------|-(0)-----------------|
|-0--------|-(0)--------|-(0)-----------------|
|-0--------|-(0)--------|-(0)-----------------|


  C5  D5C5Bb5   D5      Bb5 D5BbF5    G5    D5            N.C.
      PM        PM--|       PM                      PM--|     PM   ~~~
   E  E E E +E  E E E    E  E E E +E  E +E  E   +E  E E E S S S S  Q
|---------------------|-----------------------|-------------------------|
|---------------------|-----------------------|-------------------------|
|---------------------|-----------------------|-------------------------|
|--5----5-3-(3)-------|--3----3---------------|-----------5p3-----------|
|--3--0-3-1-(1)-0-0-0-|--1--0-1-3-(3)-5-(5)-0-|-(0)-0-0-0-------3-[5]---|
|-----0---------0-0-0-|-----0---3-(3)-5-(5)-0-|-(0)-0-0-0-----5---------|
|
| +W                    +W                      +W
|---------------------|-----------------------|-------------------------|
|---------------------|-----------------------|-------------------------|
|---------------------|-----------------------|-------------------------|
|-(0)-----------------|-(0)-------------------|-(0)---------------------|
|-(0)-----------------|-(0)-------------------|-(0)---------------------|
|-(0)-----------------|-(0)-------------------|-(0)---------------------|


  D5    C5    D5      C5  D5C5Bb5   D5
    PM        PM--|       PM        PM--|
  E E E E +E  E E E    E  E E E +E  E E E
|-------------------|---------------------|
|-------------------|---------------------|
|-------------------|---------------------|
|-7---7-5-(5)-------|--5----5-3-(3)-------|
|-5-0-5-3-(3)-0-0-0-|--3--0-3-1-(1)-0-0-0-|
|---0---------0-0-0-|-----0---------0-0-0-|
|
| W                   +W
|-------------------|---------------------|
|-------------------|---------------------|
|-------------------|---------------------|
|-0-----------------|-(0)-----------------|
|-0-----------------|-(0)-----------------|
|-0-----------------|-(0)-----------------|


  Bb5 D5BbF5    G5    D5
      PM                      PM------|
   E  E E E +E  E +E  E   +E  E E E E E  Q
|-----------------------|--------------------||
|-----------------------|--------------------||
|-----------------------|--------------------||
|--3----3---------------|--------------------||
|--1--0-1-3-(3)-5-(5)-0-|-(0)-0-0-0-0-0------||
|-----0---3-(3)-5-(5)-0-|-(0)-0-0-0-0-0-12\--||
|
|                          >
| +W                      +W
|-----------------------|--------------------||
|-----------------------|--------------------||
|-----------------------|--------------------||
|-(0)-------------------|-(0)----------------||
|-(0)-------------------|-(0)----------------||
|-(0)-------------------|-(0)----------------||


  D5    C5    D5      C5D5C5Bb5   D5
  Gtrs I, II
    PM        PM--|     PM        PM--|
  E E E E +E  E E E   E E E E +E  E E E
|-------------------|-------------------|
|-------------------|-------------------|
|-------------------|-------------------|
|-7---7-5-(5)-------|-5---5-3-(3)-------|
|-5-0-5-3-(3)-0-0-0-|-3-0-3-1-(1)-0-0-0-|
|---0---------0-0-0-|---0---------0-0-0-|


  BbD5BbF5    G5    D5            N.C.
    PM                      PM--|     PM   ~~~
  E E E E +E  E +E  E   +E  E E E S S S S  Q
|---------------------|--------------------------|
|---------------------|--------------------------|
|---------------------|--------------------------|
|-3---3---------------|-----------5p3------------|
|-1-0-1-3-(3)-5-(5)-0-|-(0)-0-0-0-------3-[5]----|
|---0---3-(3)-5-(5)-0-|-(0)-0-0-0-----5----------|


  D5    C5    D5      C5D5C5Bb5   D5
    PM        PM--|     PM        PM--|
  E E E E +E  E E E   E E E E +E  E E E
|-------------------|-------------------|
|-------------------|-------------------|
|-------------------|-------------------|
|-7---7-5-(5)-------|-5---5-3-(3)-------|
|-5-0-5-3-(3)-0-0-0-|-3-0-3-1-(1)-0-0-0-|
|---0---------0-0-0-|---0---------0-0-0-|


  BbD5BbF5    G5    D5
    PM                      PM------|
  E E E E +E  E +E  E   +E  E E E E E  Q
|---------------------|--------------------||
|---------------------|--------------------||
|---------------------|--------------------||
|-3---3---------------|--------------------||
|-1-0-1-3-(3)-5-(5)-0-|-(0)-0-0-0-0-0------||
|---0---3-(3)-5-(5)-0-|-(0)-0-0-0-0-0-12\--||


 Guitar Solo
  D5                   C5          D5            C5       D5C5Bb5     D5
  Gtrs I, II
            PM                     PM-------|             PM          PM--|
   E        E  E        E +E       E E       E    E       E E  E  +E  E E  E
|----------------------------------------------|--------------------------------|
|----------------------------------------------|--------------------------------|
|----------------------------------------------|--------------------------------|
|--7-----------7--------5-(5)------------------|--5---------5--3--(3)-----------|
|--5--------0--5--------3-(3)------0-0-------0-|--3-------0-3--1--(1)-0-0--0----|
|-----------0----------------------0-0-------0-|----------0-----------0-0--0----|
|
| Gtr IV
|                                                              ~~~~~~~~~~~ PM|
|  S.  +T   E  S.  +T   E  S.  +T  E S. +T   E    S.  +T  E E  E  +Q    E  S  S
|----------------------------------------------|--------------------------------|
|----------------------------------------------|--------------------------------|
|-14--(14)s10-10--(10)s12-12--(12)s9-9--(9)s10-|-10--(10)s7-7-10-(10)---9-10-12-|
|----------------------------------------------|--------------------------------|
|----------------------------------------------|--------------------------------|
|----------------------------------------------|--------------------------------|
|
| Gtr V
|                                                              ~~~~~~~
|  S.  +T   E  S.   T   E  S.  +T  E S. +T   E    S.  +T  E E  E  +Q    Q
|----------------------------------------------|--------------------------------|
|----------------------------------------------|--------------------------------|
|-10--(10)s=7--7----7s==9--9---(9)s5-5--(5)s=7-|--7---(7)s3-3--7--(7)-----------|
|----------------------------------------------|--------------------------------|
|----------------------------------------------|--------------------------------|
|----------------------------------------------|--------------------------------|


  Bb5   D5BbF5      G5         D5                N.C.
        PM                              PM-----|     PM    ~~~~
   E    E E E +E    E      +E  E   +E   E    E E S S S S   Q
|--------------------------------|---------------------------------|
|--------------------------------|---------------------------------|
|--------------------------------|---------------------------------|
|--3------3----------------------|---------------5p3---------------|
|--1----0-1-3-(3)---5------(5)-0-|-(0)--0----0-0-------3--[5]------|
|-------0---3-(3)---5------(5)-0-|-(0)--0----0-0-----5-------------|
|
|  ~~~~~                       ~~~~~~~~      ~~
|  H           E.      +S   E  E   +E   S S  H             E   E
|--------------------------------|---------------------------------|
|--------------------------------|---------------------------------|
|-12b14-------12b14r==(12)-10--9-|-(9)-10p9--------------/14--15---|
|--------------------------------|----------12---------------------|
|--------------------------------|---------------------------------|
|--------------------------------|---------------------------------|
|
|  W                                W
|--------------------------------|---------------------------------|
|--------------------------------|---------------------------------|
|--------------------------------|---------------------------------|
|--------------------------------|---------------------------------|
|--------------------------------|---------------------------------|
|--------------------------------|---------------------------------|


  D5              C5           D5      C5    D5 C5 Bb5     D5
  Gtrs I, II
        PM                     PM--|          PM           PM--|
   E    E       E  E      +E   E E E    E     E  E  E  +E  E E E
|------------------------------------|---------------------------|
|------------------------------------|---------------------------|
|------------------------------------|---------------------------|
|--7------------7--5------(5)--------|--5--------5--3--(3)-------|
|--5----0-------5--3------(3)--0-0-0-|--3-----0--3--1--(1)-0-0-0-|
|-------0----------------------0-0-0-|--------0------------0-0-0-|
|
| Gtr IV
|                  ~~~~~~~~~~~~                     ~~~~~~~
|  E.      +S   E  E      +H            E     E  E  E  +H
|------------------------------------|---------------------------|
|-17b18r==(17)-15--------------------|---------------------------|
|-----------------17b19==(17)r-------|-17b19-17-15-14-(14)-------|
|------------------------------------|---------------------------|
|------------------------------------|---------------------------|
|------------------------------------|---------------------------|


  Bb5   D5 Bb5F5         G5     D5
         PM                                PM---------------------|
   E     E  E  E     +E   E +E   E    +E   E     E     E     E     E     Q
|----------------------------------|-------------------------------------------||
|----------------------------------|-------------------------------------------||
|----------------------------------|-------------------------------------------||
|--3--------3----------------------|-------------------------------------------||
|--1-----0--1--3-----(3)--5-(5)--0-|--(0)--0-----0-----0-----0-----0-----------||
|--------0-----3-----(3)--5-(5)--0-|--(0)--0-----0-----0-----0-----0----12\----||
|
|                     ~~~~       ~~~~~~~~~
|  E     E  E  E     +E   E  E   E    +E   S  S  S  S  S  S  S  S  S  S  E   E
|----------------------------------|------------------------13h15p13-----------||
|----------------------------------|---------------------------------15-13--13-||
|-15b17-15-14----------------------|------------------15h17--------------------||
|-------------17b19-(17)-17-15-----|------------15h17--------------------------||
|-------------------------------17-|-(17)-15h17--------------------------------||
|----------------------------------|-------------------------------------------||


 Pre-Verse
  N.C.
  Gtr I
            ~~~~~~~      ~~~~~~~~~     ~~~~~~
    E E  E  E  +E  E  E  E    +E  E  E E +E  E Q
|--------------------------|-----------------------|
|--------------------------|-----------------------|
|--------------------------|-----------------------|
|--------------------------|-----------------------|
|--------------------------|-----------------------|
|-/12-0-12-11-(11)-0-11-10-|-(10)-0-10-9-(9)-0-9\--|
|
| Gtr II
|           ~~~~~~~      ~~~~~~~~~     ~~~~~~
|   E E  E  E  +E  E  E  E    +E  E  E E +E  E Q
|--------------------------|-----------------------|
|--------------------------|-----------------------|
|--------------------------|-----------------------|
|--------------------------|-----------------------|
|--------------------------|-----------------------|
|-/12-0-12-11-(11)-0-11-10-|-(10)-0-10-9-(9)-0-9\--|
|
| Gtr IV
|                              >
|   ~~~~~~~~~~~~~~~~~~~~~~~~~~~~~~~~~~~~~~~~~~~~~~~~
|   W                         +W
|--------------------------|-----------------------|
|--15----------------------|-(15)------------------|
|--------------------------|-----------------------|
|--------------------------|-----------------------|
|--------------------------|-----------------------|
|--------------------------|-----------------------|


                   ~~~~~~~~
    E  E E E E E E E   +E  S S S S S S S S S S S S S S
|--------------------|-----------------------------------|
|--------------------|-----------------------------------|
|--------------------|-----------------------------------|
|--------------------|-----------------------------------|
|------------0-3-4-5-|-(5)-x-x-3h5-x-x-3h5-x-x-3h5-x-x---|
|---0--3-4-5---------|-----------------------------------|
|
|                  ~~~~~~~~
|   E  E E E E E E E   +E  S S S S S S S S S S S S S S
|--------------------|-----------------------------------|
|--------------------|-----------------------------------|
|--------------------|-----------------------------------|
|--------------------|-----------------------------------|
|------------0-3-4-5-|-(5)-x-x-7h8-x-x-7h8-x-x-7h8-x-x---|
|---0--3-4-5---------|-----------------------------------|
|
|~~~~~~
|  +W                   W
|--------------------|-----------------------------------|
|-(15)---------------|-----------------------------------|
|--------------------|-----------------------------------|
|--------------------|-----------------------------------|
|--------------------|-----------------------------------|
|--------------------|-----------------------------------|


  Gtr I
            ~~~~~~~      ~~~~~~~~~     ~~~~~~
    E E  E  E  +E  E  E  E    +E  E  E E +E  E Q
|--------------------------|-----------------------|
|--------------------------|-----------------------|
|--------------------------|-----------------------|
|--------------------------|-----------------------|
|--------------------------|-----------------------|
|-/12-0-12-11-(11)-0-11-10-|-(10)-0-10-9-(9)-0-9\--|
|
| Gtr II
|           ~~~~~~~      ~~~~~~~~~     ~~~~~~
|   E E  E  E  +E  E  E  E    +E  E  E E +E  E Q
|--------------------------|-----------------------|
|--------------------------|-----------------------|
|--------------------------|-----------------------|
|--------------------------|-----------------------|
|--------------------------|-----------------------|
|-/12-0-12-11-(11)-0-11-10-|-(10)-0-10-9-(9)-0-9\--|


                ~~~~~~~~
  E E E E E E E E   +E  S S S S S S S S S S S S S S
|-----------------|-----------------------------------|
|-----------------|-----------------------------------|
|-----------------|-----------------------------------|
|-----------------|-----------------------------------|
|---------0-3-4-5-|-(5)-x-x-3h5-x-x-3h5-x-x-3h5-x-x---|
|-0-3-4-5---------|-----------------------------------|
|
|               ~~~~~~~~
| E E E E E E E E   +E  S S S S S S S S S S S S S S
|-----------------|-----------------------------------|
|-----------------|-----------------------------------|
|-----------------|-----------------------------------|
|-----------------|-----------------------------------|
|---------0-3-4-5-|-(5)-x-x-7h8-x-x-7h8-x-x-7h8-x-x---|
|-0-3-4-5---------|-----------------------------------|


              ~~~~~~~      ~~~~~~~~~      ~~~~~~~
      E E  E  E  +E  E  E  E    +E  E  E  E  +E  E  Q
||---------------------------|--------------------------|
||o--------------------------|--------------------------|
||---------------------------|--------------------------|
||---------------------------|--------------------------|
||o--------------------------|--------------------------|
||--/12-0-12-11-(11)-0-11-10-|-(10)-0-10--9--(9)-0--9\--|
|
|             ~~~~~~~      ~~~~~~~~~      ~~~~~~~
|     E E  E  E  +E  E  E  E    +E  E  E  E  +E  E  Q
||---------------------------|--------------------------|
||o--------------------------|--------------------------|
||---------------------------|--------------------------|
||---------------------------|--------------------------|
||o--------------------------|--------------------------|
||--/12-0-12-14-(14)-0-14-15-|-(15)-0-15-17-(17)-0-17\--|


                                    D.S.S. al Coda
                ~~~~~~~~
  E E E E E E E E   +E  S S S S S S S S S S S S S S
|-----------------|-----------------------------------||
|-----------------|----------------------------------o||
|-----------------|-----------------------------------||
|-----------------|-----------------------------------||
|---------0-3-4-5-|-(5)-x-x-3h5-x-x-3h5-x-x-3h5-x-x--o||
|-0-3-4-5---------|-----------------------------------||
|
|               ~~~~~~~~
| E E E E E E E E   +E  S S S S S S S S S S S S S S
|-----------------|-----------------------------------||
|-----------------|----------------------------------o||
|-----------------|-----------------------------------||
|-----------------|-----------------------------------||
|---------0-3-4-5-|-(5)-x-x-7h8-x-x-7h8-x-x-7h8-x-x--o||
|-0-3-4-5---------|-----------------------------------||


   Bridge
    &
    D5    C5    D5      C5D5C5Bb5   D5
    Gtrs I, II
      PM        PM--|     PM        PM--|
    E E E E +E  E E E   E E E E +E  E E E
||--------------------|-------------------|
||o-------------------|-------------------|
||--------------------|-------------------|
||--7---7-5-(5)-------|-5---5-3-(3)-------|
||o-5-0-5-3-(3)-0-0-0-|-3-0-3-1-(1)-0-0-0-|
||----0---------0-0-0-|---0---------0-0-0-|


  BbD5BbF5    G5    D5
    PM                      PM----------|
  E E E E +E  E +E  E   +E  E E E E E E E   4x
|---------------------|---------------------||
|---------------------|--------------------o||
|---------------------|---------------------||
|-3---3---------------|---------------------||
|-1-0-1-3-(3)-5-(5)-0-|-(0)-0-0-0-0-0-0-0--o||
|---0---3-(3)-5-(5)-0-|-(0)-0-0-0-0-0-0-0---||


 Outro Solo
  D5          C5      D5         C5   D5 C5 Bb5    D5
  Gtrs I, II
      PM              PM----|          PM           PM---------|
   E  E  E     E  +E  E  E   E     E   E  E  E +E   E   E       E
|------------------------------|----------------------------------|
|------------------------------|----------------------------------|
|------------------------------|----------------------------------|
|--7-----7-----5--(5)----------|---5------5--3-(3)----------------|
|--5--0--5-----3--(3)-0--0---0-|---3---0--3--1-(1)--0---0-------0-|
|-----0---------------0--0---0-|-------0------------0---0-------0-|
|
| Gtr IV
|              ~~~~~~~       ~~~~~~~~~
|  E  E  E     E  +E  E +E   E    +E   E  E  E  E   E  +T   S.  E
|------------------------------|----------------------------------|
|------------------------------|----------------------------------|
|-------10b12-10-(10)-9-(9)----|---------------10--12-(12)s14--12-|
|-10-12---------------------10-|-(10)-------12--------------------|
|------------------------------|------12-13-----------------------|
|------------------------------|----------------------------------|


  Bb5D5 Bb5F5     G5     D5
      PM                              PM-----------------|
   E  E  E  E +E   E +E    E     +E   E  E  E   E   E  E  E
|-----------------------------|--------------------------------|
|-----------------------------|--------------------------------|
|-----------------------------|--------------------------------|
|--3-----3--------------------|--------------------------------|
|--1--0--1--3-(3)--5-(5)---0--|--(0)--0--0--0---0---0--0--0----|
|-----0-----3-(3)--5-(5)---0--|--(0)--0--0--0---0---0--0--0----|
|
|                          ~~~~~~~~~~       ~~~~~~~
|  E  E  E  E  E   E  E    E     +E   E  E  E  +E   E  E  E
|-----------------------------|--------------------------------|
|-----------------------------|--------------------------------|
|-10--------------------------|------------10-(10)----10-12b14-|
|----14-12-10------------[12]-|-(12)-10-12---------12----------|
|-------------13--12-10-------|--------------------------------|
|-----------------------------|--------------------------------|


  D5                 C5    D5      C5    D5 C5 Bb5        D5
  Gtrs I, II
       PM                  PM--|          PM              PM-----|
    E  E        E    E +E  E E E    E     E  E  E     +E  E   E  E
|--------------------------------|---------------------------------|
|--------------------------------|---------------------------------|
|--------------------------------|---------------------------------|
|---7-----------7----5-(5)-------|--5--------5--3-----(3)----------|
|---5--0--------5----3-(3)-0-0-0-|--3-----0--3--1-----(1)-0---0--0-|
|------0-------------------0-0-0-|--------0---------------0---0--0-|
|
| Gtr IV
|               ~~~~~
|  +E.    T  T  H.                  E     E  E  E     +Q     +Q
|--------------------------------|---------------------------------|
|--------------13b15-------------|-------------17b18-(17)---(17)---|
|-(12)---12p10-------------------|-15b17-15-14---------------------|
|--------------------------------|---------------------------------|
|--------------------------------|---------------------------------|
|--------------------------------|---------------------------------|
|
| Gtr V
|   W                               W
|--------------------------------|---------------------------------|
|--------------------------------|---------------------------------|
|--------------------------------|---------------------------------|
|--------------------------------|---------------------------------|
|--------------------------------|---------------------------------|
|--------------------------------|---------------------------------|


  Bb5      D5       Bb5      F5             G5       D5
            PM                                                 PM----------------|
   E        E        E        E       +E    E    +E   E    +E  E E E  E E  E     E
|-------------------------------------------------------|---------------------------|
|-------------------------------------------------------|---------------------------|
|-------------------------------------------------------|---------------------------|
|--3-----------------3----------------------------------|---------------------------|
|--1--------0--------1--------3-------(3)---5----(5)--0-|--(0)-0-0-0--0-0--0-----0--|
|-----------0-----------------3-------(3)---5----(5)--0-|--(0)-0-0-0--0-0--0-----0--|
|
|                                                     ~~~~~~~~~
|  |------6-------|  |------6-------|
|  S  S  S  S  S  S  S  S  S  S  S  S  E.      S  E   E    +H         Q    Q
|-------------------------------------------------------|---------------------------|
|-18p15----15-------------------------------------------|---------------------------|
|-------17----17p14----14-------------------------------|---------------------------|
|-------------------17----17p14-17p14-17b19---17p14--14-|-(14)-------14---14b15=====|
|-------------------------------------------------------|---------------------------|
|-------------------------------------------------------|---------------------------|
|
|  W                                                        H         Q    Q
|-------------------------------------------------------|---------------------------|
|-------------------------------------------------------|---------------------------|
|-------------------------------------------------------|---------------------------|
|-------------------------------------------------------|---------------------------|
|-------------------------------------------------------|------------15---15b17=====|
|-------------------------------------------------------|---------------------------|


  D5       C5    D5             C5     D5 C5 Bb5          D5
       PM        PM-----|               PM                PM--|
    E  E E E +E  E   E   E        E     E  E  E      +E   E E  E
|-----------------------------|-------------------------------------|
|-----------------------------|-------------------------------------|
|-----------------------------|-------------------------------------|
|---7----7-5-(5)--------------|---5--------5--3------(3)------------|
|---5--0-5-3-(3)-0---0---0----|---3-----0--3--1------(1)--0-0--0----|
|------0---------0---0---0----|---------0-----------------0-0--0----|
|
|                                             ~~~~~~~~~~~~
|  +H.              +E   S  S     E     E  E  E      +Q.       S  S
|-----------------------------|-------------------------------------|
|-----------------------------|-------------------------------------|
|-----------------------------|-------------------------------------|
|-(14)-------------(14)r======|==14b15----15-17b19==(17)r-----------|
|-----------------------15h17-|--------17---------------------15h17-|
|-----------------------------|-------------------------------------|
|
|  +W                            +W
|-----------------------------|-------------------------------------|
|-----------------------------|-------------------------------------|
|-----------------------------|-------------------------------------|
|-----------------------------|-------------------------------------|
|-(15)------------------------|-(15)--------------------------------|
|-----------------------------|-------------------------------------|


  Bb5  D5 Bb5F5           G5     D5
        PM                                      PM--------------------|
    E   E  E  E      +E    E +E   E        +E   E E E  E    E       E  E
|---------------------------------------|-------------------------------------|
|---------------------------------------|-------------------------------------|
|---------------------------------------|-------------------------------------|
|---3------3----------------------------|-------------------------------------|
|---1---0--1--3------(3)---5-(5)--0-----|--(0)--0-0-0--0----0-------0--0------|
|-------0-----3------(3)---5-(5)--0-----|--(0)--0-0-0--0----0-------0--0------|
|
|             ~~~~~~~~~~~~        ~~~~~~~~~~~~~~
|   E   E  E  E      +E    e  e   E        +W
|---------------------------------------|-------------------------------------|
|---------------------------------------|-------------------------------------|
|------------17b19==(17)r-17-15--19b21==|=(19)r-------------------------------|
|--15-----15----------------------------|-------------------------------------|
|------17-------------------------------|-------------------------------------|
|---------------------------------------|-------------------------------------|
|
|                                                                      ~~~~~~
|  +W                                      +H          E.      +S   E  E
|---------------------------------------|-------------------------------------|
|---------------------------------------|-----------------------------13b15===|
|---------------------------------------|-------------12b14r==(12)-10---------|
|---------------------------------------|-------------------------------------|
|-(15)----------------------------------|-(15)r-------------------------------|
|---------------------------------------|-------------------------------------|


  D5        C5      D5
  Gtrs I, II
        PM           PM---|
    E   E E E +E     E  E  E
|----------------------------|
|----------------------------|
|----------------------------|
|---7-----7-5-(5)------------|
|---5---0-5-3-(3)----0--0--0-|
|-------0------------0--0--0-|
|
| Gtr V
|   ~~~~~                  ~~~
|  +H          e     e  e  E
|----------------------------|
|-(13)r-------13b15-13-11-10-|
|----------------------------|
|----------------------------|
|----------------------------|
|----------------------------|


  C5   D5   C5       Bb5                D5
       PM                                PM---------------|
    E  E     E        E       +E         E        E        E
|------------------------------------------------------------------|
|------------------------------------------------------------------|
|------------------------------------------------------------------|
|---5--------5--------3-------(3)----------------------------------|
|---3--0-----3--------1-------(1)--------0--------0--------0-------|
|------0---------------------------------0--------0--------0-------|
|
|~~~~~~
|            |------6-------|  |-------6-------|  |------6-------|
|  +E.    S  S  S  S  S  S  S  S   S  S  S  S  S  S  S  S  S  S  S
|------------------------------------------------------------------|
|-(10)---11h13h15-11h13p11-13p11-----------11----------------------|
|---------------------------------14p12h14----14p12----12----------|
|---------------------------------------------------15----15p14p10-|
|------------------------------------------------------------------|
|------------------------------------------------------------------|


  Bb5D5Bb5F5     G5     D5
     PM                           PM----------|
   E E  E  E +E   E +E   E    +E  E E E E E E E
|--------------------------|--------------------*|
|--------------------------|--------------------*|
|--------------------------|--------------------*|
|--3----3------------------|--------------------*|
|--1-0--1--3-(3)--5-(5)--0-|--(0)-0-0-0-0-0-0-0-*|
|----0-----3-(3)--5-(5)--0-|--(0)-0-0-0-0-0-0-0-*|
|
|  ~~                    ~~~~~~~~~
|  Q    E  E  E   E  E   E    +W
|--------------------------|--------------------*|
|--------------------------|--------------------*|
|--------------------------|--------------------*|
|-12---10------------------|--------------------*|
|---------13-12--10--8-----|--------------------*|
|-----------------------12-|-(12)---------------*|




--------------------------------------------------------------------------------


Duration Legend
---------------
W - whole; H - half; Q - quarter; E - 8th; S - 16th; T - 32nd; X - 64th; a - acciaccatura
+ - note tied to previous; . - note dotted; .. - note double dotted
Uncapitalized letters represent notes that are staccato (1/2 duration)
Irregular groupings are notated above the duration line
Duration letters will always appear directly above the note/fret number it represents the
duration for.  Duration letters with no fret number below them represent rests.  Multi-
bar rests are notated in the form Wxn, where n is the number of bars to rest for.  Low
melody durations appear below the staff

Tablature Legend
----------------
 h   - hammer-on
 p   - pull-off
 b   - bend
 pb  - pre-bend
 r   - bend release (if no number after the r, then release immediately)
 /\  - slide into or out of (from/to "nowhere")
 s   - legato slide
 S   - shift slide
 - natural harmonic
[n]  - artificial harmonic
n(n) - tapped harmonic
 ~   - vibrato
 tr  - trill
 T   - tap
 TP  - trem. picking
 PM  - palm muting
\n/  - tremolo bar dip; n = amount to dip
 \n  - tremolo bar down
 n/  - tremolo bar up
/n\  - tremolo bar inverted dip
 =   - hold bend; also acts as connecting device for hammers/pulls
 <> - volume swell (louder/softer)
 x   - on rhythm slash represents muted slash
 o   - on rhythm slash represents single note slash

Misc Legend
-----------
 |  - bar
||  - double bar
||o - repeat start
o|| - repeat end
*|  - double bar (ending)
 :  - bar (freetime)
 $  - Segno
 &  - Coda
Tempo markers -  = BPM(8/16=s8/s16), where s8 = swing 8ths, s16 = swing 16ths



--------------------------------------------------------------------------------

** Generated using Power Tab Editor by Brad Larsen: The Official Power Tab Web Site

            
            
Suggest correction
Creating personal tab
Creating personal tab
You can edit any tab online and save it as your Personal.

You can edit, replace or remove any tab part or add personal notes – all changes will be seen only by you.

Personal tabs can be accessed anytime from any device, even offline.
Learn more »
Give kudos to tab author, rate the tab!
1 2 3 4 5
comments
print report bad tab
guest
You may want to rate the tab now too:
select rating
Wanna post a correction for this tab? Suggest correction