Oops, an error
Loading. Please wait.

In The Fire tab

version 5
version 5

Whole song

Interactive

5,799 views 3 this week
1 commentread comment
1 2 3 4 5
x 4
add to favorites
×
Save as Personal and add changes to this tab that will be seen only by you. Learn more ›
×
You can save this tab as Personal to edit and correct it or add notes. All changes will be seen only by you. Learn more »
launch autoscroll
font size
0
reset
how to read this tab
guitar tuner
backing track
0:00
0:00
edit
Autoscroll
slow
fast
+/-
esc
set tempo
stop
Author
Difficulty
Tabbers playing skills
advanced +
Transcribed by cob666
Words and Music by Matthew K. Heafey

Gtr I (E A D G B E) - 'Rythym'
Gtr II (E A D G B E) - 'Lead'
Gtr III (E A D G B E) - 'Lead'
Gtr IV (E A D G B E) - 'Lead'
Gtr V (E A D G B E) - 'Lead'
Gtr VI (E A D G B E) - 'Lead'

Q=167
4/4
  Gtr I
   S S S S S S S S S S S S S S S S    S S S S S S  S S S S S S   S S S S
|----------------------------------|--------------------------------------|
|----------------------------------|--------------------------------------|
|----------------------------------|--------------------------------------|
|----------------------------------|--------------------------------------|
|--7-7-7-7-7-7-7-7-7-7-6-6-5-5-4-4-|--3-3-3-3-3-3--3-3-3-3-4-4---5-5-6-6--|
|----------------------------------|--------------------------------------|
|
| Gtr II
|  ~~                                 ~~
|  H               S S E   E   E      Q       E    E   Q         Q
|----------------------------------|--------------------------------------|
|-/8---------------7h8p7-----------|-------------------8-------/12--------|
|--------------------------9---8---|--------------------------------------|
|----------------------------------|-10-------9h==10----------------------|
|----------------------------------|--------------------------------------|
|----------------------------------|--------------------------------------|

   S S S S S S S S S  S S S S S S S   S S S S  S  S S S S S S S  S S S S
|-----------------------------------|------------------------------------|
|-----------------------------------|------------------------------------|
|-----------------------------------|------------------------------------|
|-----------------------------------|------------------------------------|
|--0-0-0-0-0-0-0-0-3--3-3-3-3-3-3-3-|-2-2-2-2--2--2-2-2-6-6-6-6--6-6-6-6-|
|-----------------------------------|------------------------------------|
|
|  ~~                                 ~~~~~~~~~~~~
|  H               S  S E   E   E     Q       +E    S S Q        Q
|-----------------------------------|-------------------8-------11-------|
|-10---------------8h10p8---7-------|------------------------------------|
|-------------------------------9---|-8-------(8)---8h9------------------|
|-----------------------------------|------------------------------------|
|-----------------------------------|------------------------------------|
|-----------------------------------|------------------------------------|

   S S  S S  S S  S S  S S  S S  S S S S
|----------------------------------------|
|----------------------------------------|
|----------------------------------------|
|----------------------------------------|
|--7-7--7-7--7-7--7-7--7-7--6-6--5-5-4-4-|
|----------------------------------------|
|
|                                ~~
|  S S  S S  S S  S S  S S  S S  Q
|-12-8----8------------------------------|
|------12---12-8-11-8----8---------------|
|---------------------11---11-8-11-------|
|----------------------------------------|
|----------------------------------------|
|----------------------------------------|

   S S  S S  S S  S S  S S  S S S S S S
|---------------------------------------|
|---------------------------------------|
|---------------------------------------|
|---------------------------------------|
|--3-3--3-3--3-3--3-3--3-3--4-4-5-5-6-6-|
|---------------------------------------|
|
|                               ~
|  S S  S S  S S  S S  S S  S S Q
|---------------------------------------|
|---------------------------------------|
|-11-8----8-----------------------------|
|------10---10-7-10-7----7--------------|
|---------------------10---10-7-6-------|
|---------------------------------------|

                                      Gtr IV
    S S S S S S S S S S S S S S S S   S S S S S S S S S S  S  S S S  S  S
|-----------------------------------|-------------------------------------|
|-----------------------------------|-------------------------------------|
|-----------------------------------|---------------------------5-5--8--8-|
|-----------------------------------|-----------------4-4--7--7-----------|
|---0-0-0-0-0-0-0-0-3-3-3-3-3-3-3-3-|---------3-3-6-6---------------------|
|-----------------------------------|-2-2-5-5-----------------------------|
|
|                                     Gtr V
|   ~~~~~~~~~~~~~~~~~~~~~~~~~~
|   Q       Q       Q       Q         S S S S S S S S S S  S  S S S  S  S
|-----------------------------------|-------------------------------------|
|-----------------------------------|-------------------------------------|
|-----------------------------------|---------------------------8-8-11-11-|
|-----------------------------------|-----------------7-7-10-10-----------|
|-/10-------9-------7-------6-------|---------6-6-9-9---------------------|
|-----------------------------------|-5-5-8-8-----------------------------|

  Gtr I
    S S S S S S S S  E  E E E     S S S S S S S S  E   E     E       E
|-----------------------------|----------------------------------------|
|-----------------------------|----------------------------------------|
|-----------------------------|----------------------------------------|
|--------------------9----7---|-------------------10---------9---------|
|---7-7-7-7-7-7-7-7----10---9-|-----------------------12------------10-|
|-----------------------------|---8-8-8-8-8-8-8-8----------------------|
|
| Gtr II
|   ~~~
|   H                H            H                e  +s   e    +s   E
|-----------------------------|----------------------------------------|
|-----------------------------|-/15---------------15-(15)-13---(13)-12-|
|-/11---------------12--------|----------------------------------------|
|-----------------------------|----------------------------------------|
|-----------------------------|----------------------------------------|
|-----------------------------|----------------------------------------|


   S S S S S S S S  E   E     E       E    S S S S S S S S  S S S S S S S S
|---------------------------------------|-----------------------------------|
|---------------------------------------|-----------------------------------|
|---------------------------------------|-----------------------------------|
|-------------------5---------4---------|-----------------------------------|
|-----------------------7-------------5-|-------------------6-6-6-6-6-6-6-6-|
|--5-5-5-5-5-5-5-5----------------------|--7-7-7-7-7-7-7-7------------------|
|
|  ~~                                      ~~~~~~~~~~~~~~~~~~~
|  H                e  +s   e    +s   E    H                H
|---------------------------------------|-----------------------------------|
|---------------------------------------|-----------------------------------|
|-14---------------16-(16)-15---(15)-14-|-12---------------11---------------|
|---------------------------------------|-----------------------------------|
|---------------------------------------|-----------------------------------|
|---------------------------------------|-----------------------------------|


 4/4
   S     S  S     S  S     S  S     S  E        E        E        E
|-------------------------------------------------------------------------|
|-------------------------------------------------------------------------|
|-------------------------------------------------------------------------|
|--------------------------------------9-----------------7----------------|
|--7-----7--7-----7--7-----7--7-----7----------10-----------------9-------|
|-------------------------------------------------------------------------|
|
|  T  T  S  T  T  S  T  T  S  T  T  S  T  T  S  T  T  S  T  T  S  T  T  S
|-------------------------------------------------------------------------|
|-------------------------------------------------------------------------|
|-------------------------------------------------------14-15-16-14-15-16-|
|-------------------------------------14-15-16-14-15-16-------------------|
|-------------------12-14-15-12-14-15-------------------------------------|
|-12-14-15-12-14-15-------------------------------------------------------|


 4/4
   S  S  S  S  S  S  S  S  E  E E  E
|------------------------------------|
|------------------------------------|
|------------------------------------|
|-------------------------10----9----|
|----------------------------12---10-|
|--8--8--8--8--8--8--8--8------------|
|
|                          ~~
|  S  S  S  S  S  S  S  S  H
|-------------15-14-15-19-19---------|
|-13-15-17-13------------------------|
|------------------------------------|
|------------------------------------|
|------------------------------------|
|------------------------------------|


                                           ~~~~~~~~~~~~~~~~~~~~~~
   E       +Q     E    E    Q  S  S  E    +H                 +H
|-19b21r==(19)---18---17---18-19-20-19-|-(19)---------------(19)---------------|
|--------------------------------------|---------------------------------------|
|--------------------------------------|---------------------------------------|
|--------------------------------------|---------------------------------------|
|--------------------------------------|---------------------------------------|
|--------------------------------------|---------------------------------------|
|
|  S    S   S  S  S S  S S  E  E  E  E     S  S S S S S S S   S  S S S S S S S
|--------------------------------------|---------------------------------------|
|--------------------------------------|---------------------------------------|
|--------------------------------------|---------------------------------------|
|---------------------------5-----4----|---------------------------------------|
|------------------------------7-----5-|----------------------6--6-6-6-6-6-6-6-|
|--5----5---5--5--5-5--5-5-------------|---7--7-7-7-7-7-7-7--------------------|


 4/4
   E    E E E  E    E E E    E    E E E  E    Q  +E
|-------------------------|--------------------------|
|-------------------------|--------------------------|
|-------------------------|--------------------------|
|--9-----------9----------|--9-----------9----8--(8)-|
|--7-----------7----------|--7-----------7----6--(6)-|
|-------0-0-0-------0-0-0-|-------0-0-0--------------|
|
| Gtr IV      Gtr V         Gtr IV      Gtr V
|              >             >           >
|  H           H             H           H
|-23b24-------23b24-------|-23b24-------23b24--------|
|-------------------------|--------------------------|
|-------------------------|--------------------------|
|-------------------------|--------------------------|
|-------------------------|--------------------------|
|-------------------------|--------------------------|


   E    E E E  E    E E E    E    E E E  E    E E E
|-------------------------|--------------------------|
|-------------------------|--------------------------|
|-------------------------|--------------------------|
|--9-----------9----------|--5----5-5-5--9----9-9-9--|
|--7-----------7----------|--3----3-3-3--6----6-6-6--|
|-------0-0-0-------0-0-0-|--------------------------|
|
| Gtr IV      Gtr V         Gtr IV      Gtr V
|  >           >             >           >
|  H           H             H           H
|-23b24-------23b24-------|-23b24-------23b24--------|
|-------------------------|--------------------------|
|-------------------------|--------------------------|
|-------------------------|--------------------------|
|-------------------------|--------------------------|
|-------------------------|--------------------------|


  E E E E E E E E   E E E E E Q  +E    E E E E E E E E    E  E  E  E E E E E
|-----------------|------------------|-----------------|---------------------|
|-----------------|------------------|-----------------|---------------------|
|-----------------|------------------|-----------------|---------------------|
|-9-------9-------|-9-------9-8--(8)-|-9-------9-------|-10-10-10-10-9-9-9-9-|
|-7-------7-------|-7-------7-6--(6)-|-7-------7-------|--7--7--7--7-6-6-6-6-|
|---0-0-0---0-0-0-|---0-0-0----------|---0-0-0---0-0-0-|---------------------|


  E E E E E E E E   E E E E E Q  +E    E E E E E E E E   E E E E E E E E
|-----------------|------------------|-----------------|-----------------|
|-----------------|------------------|-----------------|-----------------|
|-----------------|------------------|-----------------|-----------------|
|-9-------9-------|-9-------9-8--(8)-|-9-------9-------|-5-5-5-5-9-9-9-9-|
|-7-------7-------|-7-------7-6--(6)-|-7-------7-------|-3-3-3-3-6-6-6-6-|
|---0-0-0---0-0-0-|---0-0-0----------|---0-0-0---0-0-0-|-----------------|


  E E E E E E E E   E E E E E Q  +E    E E E E E E E E    E  E  E  E E E E E
|-----------------|------------------|-----------------|---------------------|
|-----------------|------------------|-----------------|---------------------|
|-----------------|------------------|-----------------|---------------------|
|-9-------9-------|-9-------9-8--(8)-|-9-------9-------|-10-10-10-10-9-9-9-9-|
|-7-------7-------|-7-------7-6--(6)-|-7-------7-------|--7--7--7--7-6-6-6-6-|
|---0-0-0---0-0-0-|---0-0-0----------|---0-0-0---0-0-0-|---------------------|


                                                        4/4
  E E Q  E E E E   E E E E E  Q   +E    E E Q  E E E E    E. E. E. Q  +E  +S
|----------------|--------------------|----------------|----------------------|
|----------------|-------8---10--(10)-|----------------|----------------------|
|-5-7-5------5-7-|-5-----5----7---(7)-|-5-7-5----------|----------------------|
|-7-9-7------7-9-|-7------------------|-7-9-7----------|----------------------|
|--------0-0-----|---0-0---0----------|--------0-0-0-0-|-10--9--7--6--(6)-(6)-|
|----------------|--------------------|----------------|--8--7--5--4--(4)-(4)-|


  E E Q  E E E E   E E E E E  Q   +E    E E Q  E E E E    E. E. E. Q  +E  +S
|----------------|--------------------|----------------|-----------------------|
|----------------|-------8---10--(10)-|----------------|-----------------------|
|-5-7-5------5-7-|-5-----5----7---(7)-|-5-7-5----------|-----------------------|
|-7-9-7------7-9-|-7------------------|-7-9-7----------|-----------------------|
|--------0-0-----|---0-0---0----------|--------0-0-0-0-|-10--9--7--6--(6)-(6)--|
|----------------|--------------------|----------------|--8--7--5--4--(4)-(4)--|


    S S S S S S S S S S S S S S S S   S S S S S S S S S S S S S S S S
||----------------------------------|----------------------------------|
||o---------------------------------|----------------------------------|
||----------------------------------|----------------------------------|
||----------------------------------|----------------------------------|
||o-7-7-7-7-7-7-7-7-7-7-6-6-5-5-4-4-|-3-3-3-3-3-3-3-3-3-3-4-4-5-5-6-6--|
||----------------------------------|----------------------------------|


                                    1.
  S S S S S S S S S S S S S S S S   S S S S S S S S S S S S S S S S
|---------------------------------|----------------------------------||
|---------------------------------|---------------------------------o||
|---------------------------------|----------------------------------||
|---------------------------------|----------------------------------||
|-0-0-0-0-0-0-0-0-3-3-3-3-3-3-3-3-|-2-2-2-2-2-2-2-2-6-6-6-6-6-6-6-6-o||
|---------------------------------|----------------------------------||


  2.
  Gtr IV
  S S S S S S S S S S  S  S S S  S  S
|-------------------------------------|
|-------------------------------------|
|---------------------------8-8-11-11-|
|-----------------7-7-10-10-----------|
|---------6-6-9-9---------------------|
|-5-5-8-8-----------------------------|
|
| Gtr V
| S S S S S S S S S S  S  S S S  S  S
|-------------------------------------|
|-------------------------------------|
|---------------------------5-5--8--8-|
|-----------------4-4--7--7-----------|
|---------3-3-6-6---------------------|
|-2-2-5-5-----------------------------|


  Gtr I
  S S S S S S S S E  E E E   S S S S S S S S  E  E E  E
|--------------------------|----------------------------|
|--------------------------|----------------------------|
|--------------------------|----------------------------|
|-----------------9----7---|-----------------10----9----|
|-7-7-7-7-7-7-7-7---10---9-|--------------------12---10-|
|--------------------------|-8-8-8-8-8-8-8-8------------|


  S S S S S S S S E E E E   S S S S S S S S S S S S S S S S
|-------------------------|------------------------------------|
|-------------------------|------------------------------------|
|-------------------------|------------------------------------|
|-----------------5---4---|------------------------------------|
|-------------------7---5-|-----------------6-6-6-6-6-6-6-6----|
|-5-5-5-5-5-5-5-5---------|-7-7-7-7-7-7-7-7--------------------|


  S S S S S S S S E  E E E   S S S S S S S S  E  E E  E
|--------------------------|----------------------------|
|--------------------------|----------------------------|
|--------------------------|----------------------------|
|-----------------9----7---|-----------------10----9----|
|-7-7-7-7-7-7-7-7---10---9-|--------------------12---10-|
|--------------------------|-8-8-8-8-8-8-8-8------------|


  S S S S S S S S E E E E   S S S S S S S S S S S S S S S S
|-------------------------|------------------------------------|
|-------------------------|------------------------------------|
|-------------------------|------------------------------------|
|-----------------5---4---|------------------------------------|
|-------------------7---5-|-----------------6-6-6-6-6-6-6-6----|
|-5-5-5-5-5-5-5-5---------|-7-7-7-7-7-7-7-7--------------------|


    E E E E E E E E   E E E E E Q  +E    E E E E E E E E   E E E E E E E E
||------------------|------------------|-----------------|------------------|
||o-----------------|------------------|-----------------|------------------|
||------------------|------------------|-----------------|------------------|
||--9-------9-------|-9-------9-8--(8)-|-9-------9-------|-5-5-5-5-9-9-9-9--|
||o-7-------7-------|-7-------7-6--(6)-|-7-------7-------|-3-3-3-3-6-6-6-6--|
||----0-0-0---0-0-0-|---0-0-0----------|---0-0-0---0-0-0-|------------------|


  E E E E E E E E   E E E E E Q  +E    E E E E E E E E    E  E  E  E E E E E
|-----------------|------------------|-----------------|----------------------||
|-----------------|------------------|-----------------|---------------------o||
|-----------------|------------------|-----------------|----------------------||
|-9-------9-------|-9-------9-8--(8)-|-9-------9-------|-10-10-10-10-9-9-9-9--||
|-7-------7-------|-7-------7-6--(6)-|-7-------7-------|--7--7--7--7-6-6-6-6-o||
|---0-0-0---0-0-0-|---0-0-0----------|---0-0-0---0-0-0-|----------------------||


  E E Q  E E E E   E E E E E  Q   +E    E E Q  E E E E    E. E. E. Q  +E  +S
|----------------|--------------------|----------------|-----------------------|
|----------------|-------8---10--(10)-|----------------|-----------------------|
|-5-7-5------5-7-|-5-----5----7---(7)-|-5-7-5----------|-----------------------|
|-7-9-7------7-9-|-7------------------|-7-9-7----------|-----------------------|
|--------0-0-----|---0-0---0----------|--------0-0-0-0-|-10--9--7--6--(6)-(6)--|
|----------------|--------------------|----------------|--8--7--5--4--(4)-(4)--|


  E E Q  E E E E   E E E E E  Q   +E    E E Q  E E E E    E. E. E. Q  +E  +S
|----------------|--------------------|----------------|-----------------------|
|----------------|-------8---10--(10)-|----------------|-----------------------|
|-5-7-5------5-7-|-5-----5----7---(7)-|-5-7-5----------|-----------------------|
|-7-9-7------7-9-|-7------------------|-7-9-7----------|-----------------------|
|--------0-0-----|---0-0---0----------|--------0-0-0-0-|-10--9--7--6--(6)-(6)--|
|----------------|--------------------|----------------|--8--7--5--4--(4)-(4)--|


    S S S S S S S S S S S S S S S S   S S S S S S S S S S S S S S S S
||----------------------------------|----------------------------------|
||o---------------------------------|----------------------------------|
||----------------------------------|----------------------------------|
||----------------------------------|----------------------------------|
||o-7-7-7-7-7-7-7-7-7-7-6-6-5-5-4-4-|-3-3-3-3-3-3-3-3-3-3-4-4-5-5-6-6--|
||----------------------------------|----------------------------------|


                                    1.
  S S S S S S S S S S S S S S S S   S S S S S S S S S S S S S S S S
|---------------------------------|----------------------------------||
|---------------------------------|---------------------------------o||
|---------------------------------|----------------------------------||
|---------------------------------|----------------------------------||
|-0-0-0-0-0-0-0-0-3-3-3-3-3-3-3-3-|-2-2-2-2-2-2-2-2-6-6-6-6-6-6-6-6-o||
|---------------------------------|----------------------------------||


  2.
  Gtr IV
  S S S S S S S S S S  S  S S S  S  S
|-------------------------------------|
|-------------------------------------|
|---------------------------8-8-11-11-|
|-----------------7-7-10-10-----------|
|---------6-6-9-9---------------------|
|-5-5-8-8-----------------------------|
|
| Gtr V
| S S S S S S S S S S  S  S S S  S  S
|-------------------------------------|
|-------------------------------------|
|---------------------------5-5--8--8-|
|-----------------4-4--7--7-----------|
|---------3-3-6-6---------------------|
|-2-2-5-5-----------------------------|


  Gtr I
  S S S S S S S S E  E E E   S S S S S S S S  E  E E  E
|--------------------------|----------------------------|
|--------------------------|----------------------------|
|--------------------------|----------------------------|
|-----------------9----7---|-----------------10----9----|
|-7-7-7-7-7-7-7-7---10---9-|--------------------12---10-|
|--------------------------|-8-8-8-8-8-8-8-8------------|


  S S S S S S S S E E E E   S S S S S S S S S S S S S S S S
|-------------------------|------------------------------------|
|-------------------------|------------------------------------|
|-------------------------|------------------------------------|
|-----------------5---4---|------------------------------------|
|-------------------7---5-|-----------------6-6-6-6-6-6-6-6----|
|-5-5-5-5-5-5-5-5---------|-7-7-7-7-7-7-7-7--------------------|


  S S S S S S S S E  E E E   S S S S S S S S  E  E E  E
|--------------------------|----------------------------|
|--------------------------|----------------------------|
|--------------------------|----------------------------|
|-----------------9----7---|-----------------10----9----|
|-7-7-7-7-7-7-7-7---10---9-|--------------------12---10-|
|--------------------------|-8-8-8-8-8-8-8-8------------|


  S S S S S S S S E E E E   S S S S S S S S S S S S S S S S
|-------------------------|------------------------------------|
|-------------------------|------------------------------------|
|-------------------------|------------------------------------|
|-----------------5---4---|------------------------------------|
|-------------------7---5-|-----------------6-6-6-6-6-6-6-6----|
|-5-5-5-5-5-5-5-5---------|-7-7-7-7-7-7-7-7--------------------|


  Q=167
  Gtr IV
    ~~~~~~~~~       ~~~~~~~~~~~~~~~~~~~~
    Q    +E   S  S  H         +Q    +E   S  S  E   Q       E
|------------12-12-12------|-(12)--(12)-12-12-12--14-----/15-|
|-/12---(12)---------------|---------------------------------|
|--------------------------|---------------------------------|
|--------------------------|---------------------------------|
|--------------------------|---------------------------------|
|--------------------------|---------------------------------|
|
| Gtr I
|   E E   E   E     E E Q     +Q    +Q        +Q     +Q
|--------------------------|---------------------------------|
|--------------------------|---------------------------------|
|--------------------------|---------------------------------|
|--------------------------|---------------------------------|
|--10---------9---------7--|--(7)---(7)-------(7)----(7)-----|
|-----0---0---------0-0----|---------------------------------|


   ~~~~~~~~~        ~~~~~~~~~~~~~~~~~~~~~~~~~
   Q    +E   S  S   H         +H         +Q     Q
|-14---(14)-12h14----------|-------------------------|
|-----------------/17------|-(17)-------(17)--/15----|
|--------------------------|-------------------------|
|--------------------------|-------------------------|
|--------------------------|-------------------------|
|--------------------------|-------------------------|
|
|  E E   E   E      E E Q     +Q   +Q    +Q    +Q
|--------------------------|-------------------------|
|--------------------------|-------------------------|
|--------------------------|-------------------------|
|--------------------------|-------------------------|
|-12--------10----------9--|--(9)--(9)---(9)---(9)---|
|----0---0----------0-0----|-------------------------|


   ~~                       ~~~~~~~~~~~~~~
   H         +Q     E  E    H         +Q    E   E
|------------------------|------------------------|
|-12--------(12)---12-15-|-10--------(10)--10--12-|
|------------------------|------------------------|
|------------------------|------------------------|
|------------------------|------------------------|
|------------------------|------------------------|
|
|  E E  E E   E  E  Q      +Q   +Q    +Q   +Q
|------------------------|------------------------|
|------------------------|------------------------|
|------------------------|------------------------|
|------------------------|------------------------|
|-10---10-9------9--7----|-(7)--(7)---(7)--(7)----|
|----0--------0----------|------------------------|


   ~~~
   Q              +S  +S  +S  +S  +S  +S  +S  +S  +S  +S   E
|-------------------------------------------------------------|
|--7--------------(7)-(7)-(7)-(7)-(7)-(7)-(7)-(7)-(7)-(7)--7--|
|-------------------------------------------------------------|
|-------------------------------------------------------------|
|-------------------------------------------------------------|
|-------------------------------------------------------------|
|
|  S   S   S   S   S   S   S   S   S   S   S   S   S   S   S
|-------------------------------------------------------------|
|-------------------------------------------------------------|
|-------------------------------------------------------------|
|-------------------------------------------------------------|
|-------------------------------------------------------------|
|-(6)-(6)-(6)-(6)-(6)-(6)-(6)-(6)-(7)-(7)-(7)-(7)-(7)-(7)-(7)-|


  Gtr VI
                                                     ~~~
   E         E       E       E       E       E       H
|-------------------------------------------------------------------|
|--7b9=======7-------7-------7-------7-------7------[8]-------------|
|-------------------------------------------------------------------|
|-------------------------------------------------------------------|
|-------------------------------------------------------------------|
|-------------------------------------------------------------------|
|
|  S     S   S   S   S   S   S   S   S   S   S   S   S   S   S   S
|-------------------------------------------------------------------|
|-------------------------------------------------------------------|
|-------------------------------------------------------------------|
|-------------------------------------------------------------------|
|-------------------------------------------------------------------|
|-(7)---(8)-(8)-(8)-(8)-(8)-(8)-(8)-(8)-(8)-(8)-(8)-(8)-(8)-(8)-(8)-|


  Gtr II|
   E     S  E       S  E     S  E       S  E     S |
|-------15---------12-------12---------12-------12-|
|-15b17----15b17------15b17----15b17------15b17----|
|--------------------------------------------------|
|--------------------------------------------------|
|--------------------------------------------------|
|--------------------------------------------------|
|
|  E     E       E     E     E       E     E     E |
|--------------------------------------------------|
|--------------------------------------------------|
|--------------------------------------------------|
|--------------------------------------------------|
|-10-------------------9-------------------7-------|
|--------0-------0-----------0-------0-----------0-|

   T  T  T  T  T  T  T  T  T  T  T  T S  S  S  S  S  S  S  S  S
|-12-12-15-15-15-15-15-15-15-17-15-12----------------15-12----------|
|-------------------------------------15-12-15-12-12-------15-12----|
|-------------------------------------------------------------------|
|-------------------------------------------------------------------|
|-------------------------------------------------------------------|
|-------------------------------------------------------------------|
|
|  E           E           E          E     E     E     E     E
|-------------------------------------------------------------------|
|-------------------------------------------------------------------|
|-------------------------------------------------------------------|
|-------------------------------------------------------------------|
|-------------------------------------------------------------------|
|--0-----------0-----------0-----------0-----0-----0-----0-----0----|

   S     S  S  S  S     S  S  S  S     S  S  S  S     S  S  S
|-------12-------------12-------------12-------------12-12-15-|
|----------15-12----------15-12----------15-12----------------|
|-14b16----------14b16----------14b16----------14b16----------|
|-------------------------------------------------------------|
|-------------------------------------------------------------|
|-------------------------------------------------------------|
|
|  E        E     E        E     E        E     E        E
|-------------------------------------------------------------|
|-------------------------------------------------------------|
|-------------------------------------------------------------|
|-------------------------------------------------------------|
|-12----------------------10--------------------9-------------|
|-----------0-----0--------------0--------0--------------0----|

                                                  ~~
   S  S  S  S  S  S  S  S  S  S  S   Q      S  S  Q
|-12-------------------------------------------------|
|----15-12-15-12-------------------------------------|
|----------------14-12-14-12-14-12-/16-----14-12-----|
|------------------------------------------------14--|
|----------------------------------------------------|
|----------------------------------------------------|
|
|  E     E     E     E     E     E     E E     E
|----------------------------------------------------|
|----------------------------------------------------|
|----------------------------------------------------|
|----------------------------------------------------|
|----------------------------------------------------|
|--0-----0-----0-----0-----0-----0-----0-0-----0-----|


                                ~~~~~~~~~~~~~~~
   E  E  E  E  E   Q    S  S    Q    +Q      Q    E  E  H
|----------------------------|-----------------------------------------|
|----------------------------|-17---(17)---/17---15-13-12--------------|
|-------12----12-/16---14-12-|-----------------------------------------|
|-12-14----14----------------|-----------------------------------------|
|----------------------------|-----------------------------------------|
|----------------------------|-----------------------------------------|
|
|  E  E  E  E  E   E E  E       E E   E  E   E E  E  E  S   S   S   S
|----------------------------|-----------------------------------------|
|----------------------------|-----------------------------------------|
|----------------------------|-----------------------------------------|
|----------------------------|-----------------------------------------|
|-10----10--9------9-7-------|-----------------------------------------|
|-----8--------8--------8----|--8-8---8--8---8-8--8--8-(6)-(6)-(6)-(6)-|

   |-----------6------------|  |-----------6------------| |
   S   S      S  S   S      S  S   S      S  S   S      S |
|---------------------------------------------------------|
|---------------------------------------------------------|
|---------------------------------------------------------|
|-----------------------------17--19-----21-17--19-----21-|
|-15--17-----19-15--17-----19-----------------------------|
|---------------------------------------------------------|
||
|  S      S      S      S      S      S      S      S     |
|---------------------------------------------------------|
|---------------------------------------------------------|
|---------------------------------------------------------|
|---------------------------------------------------------|
|---------------------------------------------------------|
|-(6)----(6)----(6)----(7)----(7)----(7)----(7)----(7)----|
||
|  Q                           Q                          |
|---------------------------------------------------------|
|---------------------------------------------------------|
|---------------------------------------------------------|
|---------------------------------------------------------|
|---------------------------------------------------------|
|---------------------------------------------------------|

 |-----------6------------|  |-----------6------------|
 S   S      S  S   S      S  S  S      S  S   S      S
------------------------------------------19--20-----22-|
----------------------------19--20-----22---------------|
17--19-----21-17--19-----21-----------------------------|
--------------------------------------------------------|
--------------------------------------------------------|
--------------------------------------------------------|

 S      S      S      S      S     S      S      S
--------------------------------------------------------|
--------------------------------------------------------|
--------------------------------------------------------|
--------------------------------------------------------|
--------------------------------------------------------|
(7)----(7)----(7)----(8)----(8)----(8)----(8)----(8)----|

 Q                           Q
--------------------------------------------------------|
--------------------------------------------------------|
--------------------------------------------------------|
--------------------------------------------------------|
--------------------------------------------------------|
--------------------------------------------------------|

   ~~~~~
   H                            E  E E E Q    Q
|-22b24----------------------|--------------------|
|----------------------------|--------------------|
|----------------------------|--------------------|
|----------------------------|--------------------|
|----------------------------|--------------------|
|----------------------------|--------------------|
|
| Gtr V
|  ~~~~~~~~~~~   ~~~~~~~~~~~~            ~
|  Q      +E   E Q   +E  +E    +E  E E E Q    E E
|----------------------------|--------------------|
|----------------------------|---------8-7--------|
|-/9------(9)-11-9---(9)-(9)-|-(9)-7-9----------9-|
|----------------------------|---------------12---|
|----------------------------|--------------------|
|----------------------------|--------------------|
|
| Gtr I
|  E    E  E   E E E  E   E     E  E E E E E  E E
|----------------------------|--------------------|
|----------------------------|--------------------|
|----------------------------|--------------------|
|----------------------------|--------------------|
|-10-----------9------7------|--------------------|
|-------0--0-----0-0------0--|--0--0-0-0-0-0--0-0-|

  Gtr III                         Gtr V
   Q    +E      +E  H         +E    Q    E  E  E  E  E
|---------------------------|--------------------------|
|---------------------------|-----/12---12-12p10-10----|
|-11---(11)b12r(11)-9-------|-(9)-------------------12-|
|---------------------------|--------------------------|
|---------------------------|--------------------------|
|---------------------------|--------------------------|
|
| Gtr I
|  E E   E       E  E E E E    E    E E  E  E  E  E  E
|---------------------------|--------------------------|
|---------------------------|--------------------------|
|---------------------------|--------------------------|
|---------------------------|--------------------------|
|-12------------10------9---|--------------------------|
|----0---0----------0-0---0-|--0----0-0--0--0--0--0--0-|

   E  E  E E E E  E E   E  H        +Q     +E
|---------------------|------------------------|
|---------------------|------------------------|
|-12-11--9-9-9p7------|---12-------(12)---(12)-|
|----------------10-9-|-7----------------------|
|---------------------|------------------------|
|---------------------|------------------------|
|
|  E  E  E E E E  E E   E  E E E E   E  E   E
|---------------------|------------------------|
|---------------------|------------------------|
|---------------------|------------------------|
|---------------------|------------------------|
|-10----10-9---9--7---|------------------------|
|-----8------8------8-|-8--8-8-8-8---8--8---8--|

   S   S   S   S   S   S   S   S   S   E        E       S   S   S
|-------------15--20--15--------------15------(15)------------------|
|---------17--------------17------17--------------------------------|
|-----17----------------------17------------------------------------|
|------------------------------------------------------16--14-------|
|-15-----------------------------------------------------------14---|
|-------------------------------------------------------------------|
|
|  S   S   S   S   S   S   S   S   S   S   S    S   S   S   S   S
|-------------------------------------------------------------------|
|-------------------------------------------------------------------|
|-------------------------------------------------------------------|
|-------------------------------------------------------------------|
|-------------------------------------------------------------------|
|-(6)-(6)-(6)-(6)-(6)-(6)-(6)-(6)-(7)-(7)-(7)--(7)-(7)-(7)-(7)-(7)--|

  Gtr IV
   Q                Q                   E         E       E       E
|--------------------------------------------------------------------|
|--------------------------------------------------------------------|
|-----------------------------------------------(12)-----12------14--|
|--------------------------------------------------------------------|
|--------------------------------------------------------------------|
|--------------------------------------------------------------------|
|
| Gtr V
|  S   S   S   S   +S   +S   +S   +S   +S   +S    E       E       E
|--------------------------------------------------------------------|
|--------------------------------------------------------------------|
|--------------------------------------------------------------------|
|-----------------------------------------------(14)-----14------16--|
|-10--12-------------------------------------------------------------|
|---------12------(12)-(12)-(12)-(12)-(12)-(12)----------------------|
|
| Gtr I
|  S   S   S   S    S    S    S    S    S    S    S   S   S   S   S
|--------------------------------------------------------------------|
|--------------------------------------------------------------------|
|--------------------------------------------------------------------|
|--------------------------------------------------------------------|
|--------------------------------------------------------------------|
|-(8)-(8)-(8)-(8)--(8)--(8)--(8)--(8)--(8)--(8)--(8)-(8)-(8)-(8)-(8)-|

   H        E  E  E  E    E  E  Q    +Q    +E   S  S
|----------------------|-------15---(15)--(15)-15-17--|
|----------------------|-15-17------------------------|
|-14\------------12-14-|------------------------------|
|----------14-16-------|------------------------------|
|----------------------|------------------------------|
|----------------------|------------------------------|
|
|  H                      E  E  Q     Q     E   S  S
|----------------------|------------------------------|
|----------------------|------------------------------|
|----------------------|------------------------------|
|-16\------------------|------------------------------|
|----------------------|------------------------------|
|----------------------|------------------------------|
|
|  Q   E E  E  E  Q       E  E  E E   Q    +E   E
|----------------------|------------------------------|
|----------------------|------------------------------|
|--0--------------0----|--------------0----(0)--------|
|--2--------------2----|--------------2----(2)--------|
|----------------------|------------------------------|
|------0-0--0--0-------|--0--0--0-0-------------0-----|

                                          ~~~~~~~~~~~~~~
   S  S  S  E    S  S  S  S  S  S  S  +T  E    +S  +T
|-15---------------------------------------------------|
|----17-15-17-----------------------------9b10-(9)-(9)-|
|---------------15-17-15-------------------------------|
|------------------------17-19-17-19-(19)--------------|
|------------------------------------------------------|
|------------------------------------------------------|
|
|  Q          E     E     E     E      Q
|------------------------------------------------------|
|------------------------------------------------------|
|--0-----------------------------------0---------------|
|--2-----------------------------------2---------------|
|-------------1-----1-----1-----1----------------------|
|------------------------------------------------------|

 ~~~~~                ~~~~~~~~~~~~~~~
  +S   T  E   S   +S  H          +E
|---------------------------------------|
|-(9)-11-10---8---(8)-------------------|
|---------------------9----------(9)----|
|---------------------------------------|
|---------------------------------------|
|---------------------------------------|
|
|  E        E   E       E Q  +E      E
|---------------------------------------|
|---------------------------------------|
|-------------------------0--(0)--------|
|-------------------------2--(2)--------|
|--2--------2---2-------2------------2--|
|---------------------------------------|

                                 ~~~
   E  E  E  E  E   Q    S  S     H       E E  E  E
|----------------------------|---------------------|
|-------12-------------------|-/17-----------------|
|-------12----12-/16---14-12-|---------------11----|
|-12-14----14----------------|-----------9-9-----9-|
|----------------------------|---------------------|
|----------------------------|---------------------|
|
|  Q     E  E  E   E Q           E E E E Q   +E  E
|----------------------------|---------------------|
|----------------------------|---------------------|
|--0-----------------0-------|-----------0---(0)---|
|--2-----------------2-------|-----------2---(2)---|
|--------3--3--3---3---------|---3-3-3-3---------3-|
|----------------------------|---------------------|

                   ~~~~~
   S  E  +S   E E  E  Q    +E
|------------------------------|
|------------------------------|
|-11-12-(12)-11-9--------------|
|-----------------13-14---(14)-|
|------------------------------|
|------------------------------|
|
|  Q          E E  E  E Q
|------------------------------|
|------------------------------|
|--2--------------------0------|
|--4--------------------2------|
|-------------5-5--5--5--------|
|------------------------------|

   ~~~~~~~~~~~
   H        H
|----------------------|
|----------------------|
|-11-------12----------|
|----------------------|
|----------------------|
|----------------------|
|
|  E E E E  E +E  E
|----------------------|
|----------------------|
|-----------0-(0)------|
|-----------2-(2)------|
|--6-6-6-6--------6----|
|----------------------|


  Gtr II
   S  S  S  S  S  S  S  S  S  S  S  S  S  S  S  S
|-------------------------------------------------|
|-------------------------------------------------|
|-12-11----------12-11-------12-14-11-12-11-------|
|-------14-12-12-------14-12----------------14-12-|
|-------------------------------------------------|
|-------------------------------------------------|
|
| Gtr I
|  Q           E     E     E     E     Q
|-------------------------------------------------|
|-------------------------------------------------|
|--0-----------------------------------0----------|
|--2-----------------------------------2----------|
|-------------------------------------------------|
|--------------0-----0-----0-----0----------------|

   S  S  S  S  S  S  S  S  S  S  S  S  S   S  S  S  S  S
|--------------------------------------------------12-14-|
|----------------------------12-12-13-12--10-12-12-------|
|----11-12-11----11-11-12-14-----------------------------|
|-14----------14-----------------------------------------|
|--------------------------------------------------------|
|--------------------------------------------------------|
|
|  E     E     E     E     Q          +E      Q
|--------------------------------------------------------|
|--------------------------------------------------------|
|--------------------------0----------(0)----------------|
|--------------------------2----------(2)----------------|
|--------------------------------------------------------|
|--0-----0-----0-----0------------------------0----------|

   S  S  T  S  S    T  S  S  S  S  S  S  S  S  S  E  +S     +Q     H       E   E
|-12-14-15-12--------------------------------------------|-----------------------|
|-------------15---15-12---------------------------------|-----------------------|
|------------------------12------------------------------|-----------------------|
|---------------------------14-14-16-14-12-12------------|-----------------------|
|---------------------------------------------12---------|-----------------9--10-|
|------------------------------------------------12-(12)-|-(12)---14-------------|
|
|  Q             E        E     E     E     Q         E      E  E  E E Q  +E   E
|--------------------------------------------------------|-----------------------|
|--------------------------------------------------------|-----------------------|
|--0----------------------------------------0------------|-------------0--(0)----|
|--2----------------------------------------2------------|-------------2--(2)----|
|----------------1--------1-----1-----1---------------2--|---2--2--2-2---------2-|
|--------------------------------------------------------|-----------------------|

  ~~~~~~~~~~~~
  H       +Q    E   E  S     E  E  E  E  E  +E   +E   +E
|-------------------------|--------------------------------|
|-------------------------|--------------------------------|
|--------------11S=12-12\-|-11-11S14-14S16-(16)-(16)-(16)--|
|---------------x---x--x--|--x--x--x--x--x--(x)--(x)--(x)--|
|-9-------(9)---9S=10-10\-|--9--9S12-12S14-(14)-(14)-(14)--|
|-------------------------|--------------------------------|
|
| E E E E  Q   +E   E        Q     E  E  E   E    Q
|-------------------------|--------------------------------|
|-------------------------|--------------------------------|
|----------0---(0)--------|--2--------------------0--------|
|----------2---(2)--------|--4--------------------2--------|
|-3-3-3-3-----------3-----|--------5--5--5---5-------------|
|-------------------------|--------------------------------|

  S  S  E  S S  S  S  S  S  S  S  S  S  S  S
|--------------------------------------------|
|--------------------------10-------------10-|
|-----------------------12-------11----11----|
|------------9-10----10-------12----14-------|
|-9-10-12-12------12-------------------------|
|--------------------------------------------|
|
| Q        E    E     E     E     Q
|--------------------------------------------|
|--------------------------------------------|
|-2-------------------------------0----------|
|-4-------------------------------2----------|
|----------5----5-----5-----5----------------|
|--------------------------------------------|


   S  S  S  S  S  S  S  S  S  S  S   S  S  S  S  T
|-------------------------10-10-----------------10-|
|-12-10----------10-12-10-------12--10-------10----|
|-------12-11-12-----------------------12-11-------|
|--------------------------------------------------|
|--------------------------------------------------|
|--------------------------------------------------|
|
|  E     E     E     E     E    +E      E
|--------------------------------------------------|
|--------------------------------------------------|
|--------------------------0----(0)----------------|
|--------------------------2----(2)----------------|
|--6-----6-----6-----6------------------6----------|
|--------------------------------------------------|


  Gtr IV
   S  S  S  S  S  S  S  T  T  S     S     S     S     S     S     S     T  T
|----15-14-15-12-15-14-15----------15----14----15----12----15----14----15-------|
|-12----------------------12-12-------------------------------------------12----|
|-------------------------------------------------------------------------------|
|-------------------------------------------------------------------------------|
|-------------------------------------------------------------------------------|
|-------------------------------------------------------------------------------|
|
| Gtr V
|  S  S  S  S  S  S  S  S     T  S     S     S     S     S     S     S     T  T
|----19-17-19-15-19-17-19-------------19----17----19----15----19----17----19----|
|-15-------------------------15-15-------------------------------------------15-|
|-------------------------------------------------------------------------------|
|-------------------------------------------------------------------------------|
|-------------------------------------------------------------------------------|
|-------------------------------------------------------------------------------|
|
| Gtr I
|  Q           E     E        E           E           Q
|-------------------------------------------------------------------------------|
|-------------------------------------------------------------------------------|
|--0--------------------------------------------------0-------------------------|
|--2--------------------------------------------------2-------------------------|
|-------------------------------------------------------------------------------|
|--------------0-----0--------0-----------0-------------------------------------|

   S  S  S  S  S  S  S  T  T  S  S  S  S  S   S  S  T  T
|----15-14-15-12-15-14-15-------15-14-15-12--15-14-15------|
|-12----------------------12-12-----------------------12---|
|----------------------------------------------------------|
|----------------------------------------------------------|
|----------------------------------------------------------|
|----------------------------------------------------------|
|
|  S  S  S  S  S  S  S  T  T  S  S  S  S  S   S  S  T  T
|----19-17-19-15-19-17-19-------19-17-19-15--19-17-19------|
|-15----------------------15-15-----------------------15---|
|----------------------------------------------------------|
|----------------------------------------------------------|
|----------------------------------------------------------|
|----------------------------------------------------------|
|
|  E     E     E     E        Q          +E      E
|----------------------------------------------------------|
|----------------------------------------------------------|
|-----------------------------0----------(0)---------------|
|-----------------------------2----------(2)---------------|
|----------------------------------------------------------|
|--0-----0-----0-----0---------------------------0---------|

   S  S  S  S  S  S  S  S     T  S     S     S     S     S     S     S     T  T
|----15-14-15-12-15-14-15-------------15----14----15----12----14----15----15-12-|
|-11-------------------------11-11----------------------------------------------|
|-------------------------------------------------------------------------------|
|-------------------------------------------------------------------------------|
|-------------------------------------------------------------------------------|
|-------------------------------------------------------------------------------|
|
|  S  S  S  S  S  S  S  T  T  S     S     S     S     S     S     S     T  T
|----19-17-19-15-19-17-19----------19----17----19----15----17----19----19-15----|
|-14----------------------14-14-------------------------------------------------|
|-------------------------------------------------------------------------------|
|-------------------------------------------------------------------------------|
|-------------------------------------------------------------------------------|
|-------------------------------------------------------------------------------|
|
|  Q           E     E        E           E           Q
|-------------------------------------------------------------------------------|
|-------------------------------------------------------------------------------|
|--0--------------------------------------------------0-------------------------|
|--2--------------------------------------------------2-------------------------|
|--------------1-----1--------1-----------1-------------------------------------|
|-------------------------------------------------------------------------------|

  Gtr II
                     ~~~~~~~~~~~~~~~
   S  S  S  S  S S S H          +S
|-15---------------------------------|
|------------------------------------|
|----15-12-12-12-9-9-9----------(9)--|
|------------------------------------|
|------------------------------------|
|------------------------------------|
|
|  S  S  S  S  S S S H           S
|------------------------------------|
|------------------------------------|
|------------------------------------|
|------------------------------------|
|------------------------------------|
|------------------------------------|
|
|  E     E     E   E   Q  +E  E
|------------------------------------|
|------------------------------------|
|----------------------0--(0)--------|
|----------------------2--(2)--------|
|--2-----2-----2---2----------2------|
|------------------------------------|

           ~~                             ~~~~~~~~~~~~~~
  E  E  E  Q   E  E  E    E       +E   E  H         +E
|----------------------|--------------------------------|
|----------------------|--------------------------------|
|-9-11-12-11---9-11-12-|-14b15.5r(14)-12-14--------(14)-|
|----------------------|--------------------------------|
|----------------------|--------------------------------|
|----------------------|--------------------------------|
|
| Gtr I
| Q     E  E E E  Q       E        E   E  E Q  +E    E
|----------------------|--------------------------------|
|----------------------|--------------------------------|
|-0---------------0----|--------------------0--(0)------|
|-2---------------2----|--------------------2--(2)------|
|-------3--3-3-3-------|--3--------3---3--3----------3--|
|----------------------|--------------------------------|

   S  S  S  S  S  S  S  S  S  S  S  S  S  S  S  S
|-19-15----------15-19-15-19-15----------15-19-15--|
|-------17----17----------------17----17-----------|
|----------16----------------------16--------------|
|--------------------------------------------------|
|--------------------------------------------------|
|--------------------------------------------------|
|
|  Q           E     E     E     E     Q
|--------------------------------------------------|
|--------------------------------------------------|
|--2-----------------------------------0-----------|
|--4-----------------------------------2-----------|
|--------------5-----5-----5-----5-----------------|
|--------------------------------------------------|

   S  S  S  S  S  S  S  S  S  S  S   S  S  S  S  S
|----------15-20-19-17----19-17--------------------|
|-17----17-------------20-------20--19-------------|
|----16--------------------------------17-16-14----|
|-----------------------------------------------17-|
|--------------------------------------------------|
|--------------------------------------------------|
|
|  E     E     E     E     E    +E      E
|--------------------------------------------------|
|--------------------------------------------------|
|--------------------------0----(0)----------------|
|--------------------------2----(2)----------------|
|--6-----6-----6-----6------------------6----------|
|--------------------------------------------------|

  Q=167
                    \1/   \1/   \1/
    ~~~~~~~~~~~~~~~~~~~~~~~~~~~~~~~~
    H       +Q     +E    +E    +Q       E  E  Q   E   E
|-------------------------------------------------------|
|-------------------------------------------------------|
|-/16------(16)---(16)--(16)--(16)----/17-16-14--12--14-|
|-------------------------------------------------------|
|-------------------------------------------------------|
|-------------------------------------------------------|
|
|   Q  E E   E  E   Q           E   E   E  E  Q  +E   E
|-------------------------------------------------------|
|-------------------------------------------------------|
|---0---------------0-------------------------0--(0)----|
|---2---------------2-------------------------2--(2)----|
|-------------------------------------------------------|
|------0-0---0--0---------------0---0---0--0----------0-|

        \1/   \1/   \1/
   ~~                                                ~~~~~~~~                  ~~
                                                              |--6--|
   Q   +E    +E    +Q      S  S  Q    S  S  S  S  E  Q   +E   S  S  S  Q    E  H
|---------------------------------------------------------------------15---14----------:--|
|------------------------------------------------------------------12---------15-------:--|
|-14--(14)--(14)--(14)----12-11-12---11-12-11-------------------12---------------------:--|
|---------------------------------------------14-12-14--(14)-14------------------------:--|
|--------------------------------------------------------------------------------------:--|
|--------------------------------------------------------------------------------------:--|
|
|  Q    E     E     E   E  Q       E  E     E     E  Q   +E   E        E E  E  Q  +E
|--------------------------------------------------------------------------------------:--|
|--------------------------------------------------------------------------------------:--|
|--0-----------------------0-------------------------0---(0)-------------------0--(0)--:--|
|--2-----------------------2-------------------------2---(2)-------------------2--(2)--:--|
|-------1-----1-----1---1----------2--2-----2-----2-----------3--------3-3--3----------:--|
|--------------------------------------------------------------------------------------:--|

      ~~      ~~
   E  Q    E  H         E    S  S  S  S  S  S  S  S  S  S  S  S  S  S  S  S
|-15-14------12--------12-|-------19----------------------------------------|
|---------15--------------|-20-22----22-20-19-17----19-17-------------------|
|-------------------------|----------------------19-------19-18-19-17-16----|
|-------------------------|----------------------------------------------19-|
|-------------------------|-------------------------------------------------|
|-------------------------|-------------------------------------------------|
|
|     E E  E  E Q  +E   E    Q           E     E     E     E     Q
|-------------------------|-------------------------------------------------|
|-------------------------|-------------------------------------------------|
|---------------0--(0)----|--2-----------------------------------0----------|
|---------------2--(2)----|--4-----------------------------------2----------|
|-----3-3--3--3---------3-|--------------5-----5-----5-----5----------------|
|-------------------------|-------------------------------------------------|

   S  S  S  S  S  S  S  S  S  S  S   S  S  S  S  S
|---------------------------------------------------||
|---------------------------------------------------||
|-17-16----------------------16-17--17-16-14--------||
|-------19-17-17-16-17-19-19-----------------16-14--||
|---------------------------------------------------||
|---------------------------------------------------||
|
|  E     E     E     E     E    +E      Q
|---------------------------------------------------||
|---------------------------------------------------||
|--------------------------0----(0)-----------------||
|--------------------------2----(2)-----------------||
|--6-----6-----6-----6------------------6-----------||
|---------------------------------------------------||

  Gtr I
   S  S S S S S S S S S S S S S S S   S S S S S S S S S S S S S S S S
|-----------------------------------|---------------------------------|
|-----------------------------------|---------------------------------|
|-----------------------------------|---------------------------------|
|-----------------------------------|---------------------------------|
|--7--7-7-7-7-7-7-7-7-7-6-6-5-5-4-4-|-3-3-3-3-3-3-3-3-3-3-4-4-5-5-6-6-|
|-----------------------------------|---------------------------------|
|
| Gtr II
|  \3
|  ~~~
|  W                                  W
|-----------------------------------|---------------------------------|
|-17--------------------------------|---------------------------------|
|-----------------------------------|---------------------------------|
|-----------------------------------|---------------------------------|
|-----------------------------------|---------------------------------|
|-----------------------------------|---------------------------------|

  S S S S S S S S S S S S S S S S   S S S S S S S S S S S S S S S S
|---------------------------------|---------------------------------|
|---------------------------------|---------------------------------|
|---------------------------------|---------------------------------|
|---------------------------------|---------------------------------|
|-0-0-0-0-0-0-0-0-3-3-3-3-3-3-3-3-|-2-2-2-2-2-2-2-2-6-6-6-6-6-6-6-6-|
|---------------------------------|---------------------------------|

  S S S S S S S S S S S S S S S S   S S S S S S S S S S S S S S S S
|---------------------------------|---------------------------------|
|---------------------------------|---------------------------------|
|---------------------------------|---------------------------------|
|---------------------------------|---------------------------------|
|-7-7-7-7-7-7-7-7-7-7-6-6-5-5-4-4-|-3-3-3-3-3-3-3-3-3-3-4-4-5-5-6-6-|
|---------------------------------|---------------------------------|

  S S S S S S S S S S S S S S S S   S S S S S S S S S S  S  S S S  S  S
|---------------------------------|-------------------------------------|
|---------------------------------|-------------------------------------|
|---------------------------------|---------------------------5-5--8--8-|
|---------------------------------|-----------------4-4--7--7-----------|
|-0-0-0-0-0-0-0-0-3-3-3-3-3-3-3-3-|---------3-3-6-6---------------------|
|---------------------------------|-2-2-5-5-----------------------------|
|
| Gtr II
| W                                 S S S S S S S S S S  S  S S S  S  S
|---------------------------------|-------------------------------------|
|---------------------------------|-------------------------------------|
|---------------------------------|---------------------------8-8-11-11-|
|---------------------------------|-----------------7-7-10-10-----------|
|---------------------------------|---------6-6-9-9---------------------|
|---------------------------------|-5-5-8-8-----------------------------|

  S S S S S S S S E  E E E   S S S S S S S S  E  E E  E
|--------------------------|----------------------------|
|--------------------------|----------------------------|
|--------------------------|----------------------------|
|-----------------9----7---|-----------------10----9----|
|-7-7-7-7-7-7-7-7---10---9-|--------------------12---10-|
|--------------------------|-8-8-8-8-8-8-8-8------------|

  S S S S S S S S E E E E   S S S S S S S S S S S S S S S S
|-------------------------|------------------------------------|
|-------------------------|------------------------------------|
|-------------------------|------------------------------------|
|-----------------5---4---|------------------------------------|
|-------------------7---5-|-----------------6-6-6-6-6-6-6-6----|
|-5-5-5-5-5-5-5-5---------|-7-7-7-7-7-7-7-7--------------------|

  S S S S S S S S E  E E E   S S S S S S S S  E  E E  E
|--------------------------|----------------------------|
|--------------------------|----------------------------|
|--------------------------|----------------------------|
|-----------------9----7---|-----------------10----9----|
|-7-7-7-7-7-7-7-7---10---9-|--------------------12---10-|
|--------------------------|-8-8-8-8-8-8-8-8------------|

  S S S S S S S S E E E E   S S S S S S S S S S S S S S S S
|-------------------------|------------------------------------|
|-------------------------|------------------------------------|
|-------------------------|------------------------------------|
|-----------------5---4---|------------------------------------|
|-------------------7---5-|-----------------6-6-6-6-6-6-6-6----|
|-5-5-5-5-5-5-5-5---------|-7-7-7-7-7-7-7-7--------------------|

  H     H
|------------*|
|------------*|
|-9\---------*|
|-9\---------*|
|-7\---------*|
|------------*|


************************************

| h    Hammer-on
| p    Pull-off
| /    Slide up
| ~    Vibrato
| (n)  Ghost note
| b    Bend
| >    Accented note
| [n]  Artificial harmonic (Pinch harmonic)
| \    Slide down
| x    Dead note

************************************

            
            
Suggest correction
Creating personal tab
Creating personal tab
You can edit any tab online and save it as your Personal.

You can edit, replace or remove any tab part or add personal notes – all changes will be seen only by you.

Personal tabs can be accessed anytime from any device, even offline.
Learn more »
comments
print report bad tab
1 comment total.
0 reply
Jman09 20 Sep 14, 2007 10:59 AM

excellent, long freakin song though

guest
You may want to rate the tab now too:
select rating
Wanna post a correction for this tab? Suggest correction