Oops, an error
Loading. Please wait.

Roads Tab

version 1
version 1

Whole song

Interactive

4,785 views 1 this week
2 commentsread comments
1 2 3 4 5
1 last vote to show rating
add to favorites
launch autoscroll
font size
0
reset
how to read this tab
guitar tuner
Autoscroll
slow
fast
+/-
esc
set tempo
stop
Help us to improve Ultimate-Guitar.com Take our survey!
×
Difficulty
novice
Main Riff

E ------------------------------------------------------------------------|
B ---3---3---3---3---3---3---3---3---3---3---3----3---0---0---0---0-------|
G ---4---4---4---4---2---2---2---2---0---0---0----0---0---0---0---0-------|
D ------------------------------------------------------------------------|
A -2---2---2---2---0---0---0---0------------------------------------------|
E ---------------------------------3---3---3---3---0---0---0---0----------|

Chorus (Fingerpick) Do this same pattern until the humming begins

E ------7-----7-----7-----7-|
B ----7-----7-----7-----7---|
G --9-----9-----9-----9-----|
D --------------------------|
A --------------------------|
E --------------------------|

Humming Chords

  D       A     E

E -2-   -0-   -0-|
B -3-   -2-   -0-|
G -2-   -2-   -1-|
D -0-   -2-   -2-|
A -x-   -0-   -2-|
E -x-   -x-   -0-|

Thats it, The songs structure is very simple, and this is all the music you need to 
you should have no problems putting it all together

Comments about tab to - fender30@hotmail.co.uk
Suggest correction
Give kudos to tab author, rate the tab!
1 2 3 4 5
comments
print report bad tab
2 comments total.
0 reply
SYL7 20 Oct 17, 2007 06:25 PM

I made + uploaded this tab before i signed up lol should have done it the other way round :P

Well, hope it helps you out doodes, i think its pretty much correct

-1 reply
!,,! (-.-) !,,! 527 Oct 29, 2008 10:39 AM

yeah and u rated it 5 stars.. pathetic. sounds shit

guest
You may want to rate the tab now too:
select rating
Wanna post a correction for this tab? Suggest correction