Oops, an error
Loading. Please wait.

Roads Tab

version 2
version 2

Whole song

Interactive

762 views 6 this week
3 commentsread comments
1 2 3 4 5
1 last vote to show rating
add to favorites
launch autoscroll
font size
0
reset
how to read this tab
guitar tuner
×
Best way to learn
"Roads"
Autoscroll
slow
fast
+/-
esc
set tempo
stop
                          Roads - Roadrunner United

I haven't written it all down as it runs, just what you need to know to play the song. 
quite short and simple (although I had a bit of trouble hearing the chorus under the 
just listen to it to get the timing and order.

Verse:
e|---------------------------------------------------|
B|---3--3--3--3--3--3--3--3--0--0--0--0--0--0--0--0--|
G|---2--2--2--2--2--2--2--2--3--3--3--3--0--0--0--0--|
D|---------------------------------------------------|
A|-2--2--2--2--0--0--0--0----------------------------|
E|-------------------------3--3--3--3--0--0--0--0----|


Chorus:          D       A       G
e||--------7--||-2-------0-------3--|
B||------7----||-3-------2-------0--|
G||*---9-----*||-2-------2-------0--|
D||*---------*||-0-------2-------0--|
A||-----------||-x-------0-------2--|
E||-----------||-x-------x-------3--|
   (Vocals)      (Humming)


Voice of loss is sighing through the rain, but as I turn around, nothing's to be found,
For hours now upon this endless road, but is it taking me, where I long to be -
Alone...

Soaring hope is wheeling through my head, can't remember this, but it must be what I miss,
Suddenly I find I'm standing still, staring at the ground, waiting for your sound -
Again...
Suggest correction
Give kudos to tab author, rate the tab!
1 2 3 4 5
comments
print report bad tab
3 comments total.
0 reply
johova_666 10 Jun 12, 2007 04:41 PM

i dont think its 2 strings together im prity shur its

G---0---0---0---0---0---0---0---0---0---0---0---0----------------
A-2---2---2---2---0---0---0---0---------------------2---2---2---2
E---------------------------------3---3---3---3---0---0---0---0--

not gona pretend this is my tab i got it from tabarama b4 it wanted u to pay

0 reply
TheNthDimension 111 Jun 14, 2007 11:58 AM

Fair enough, I prefer it the other way but however you want to play it is good really. I'm guessing that G string is actually meant to be a D though?

0 reply
!,,! (-.-) !,,! 527 Oct 29, 2008 06:35 AM

hey thats my tab johova !

guest
You may want to rate the tab now too:
select rating
Wanna post a correction for this tab? Suggest correction