Oops, an error
Loading. Please wait.

Roads Tab

version 2
version 2

Whole song

Interactive

4,343 views 12 this week
1 commentread comment
1 2 3 4 5
excellent!
x 3
add to favorites
launch autoscroll
font size
0
reset
how to read this tab
guitar tuner
Autoscroll
slow
fast
+/-
esc
set tempo
stop
Help us to improve Ultimate-Guitar.com Take our survey!
×
It's an easy song and the pattern is simple, so you will figure it out fast :-)




---------------------------------------------|
---------------------------------------------|
---------------------------------------------|
------0---0---0---0-----0---0---0---0--------|
-----2---2---2---2-----0---0---0---0---------|
---------------------------------------------|

---------------------------------------------|
---------------------------------------------|
---------------------------------------------|
-------0---0---0---0-------------------------|
-------------------------2---2---2---2-------|
-----3---3---3---3-----0---0---0---0---------|

Chorus (Fingerpick) Do this same pattern until the humming begins

E ------7-----7-----7-----7-|
B ----7-----7-----7-----7---|
G --9-----9-----9-----9-----|
D --------------------------|
A --------------------------|
E --------------------------|

Humming Chords

  D       A     E
E -2-   -0-   -0-|
B -3-   -2-   -0-|
G -2-   -2-   -1-|
D -0-   -2-   -2-|
A -x-   -0-   -2-|
E -x-   -x-   -0-|

Suggest correction
Give kudos to tab author, rate the tab!
1 2 3 4 5
comments
print report bad tab
1 comment total.
0 reply
6sic6_blank 20 wrote on December 5 2009, 10:04 pm

Hm...I believe this song would be perfect on a 12 string, so you could get the harmony the way the piano gets it.

guest
You may want to rate the tab now too:
select rating
Please do not post tabs as comments. Select "correction" instead!