Oops, an error
Loading. Please wait.

The Dagger tab

version 4
version 4

Interactive

2,504 views 1 this week
no commentswrite comment
1 2 3 4 5
3 more votes to show rating
add to favorites
×
Save as Personal and add changes to this tab that will be seen only by you. Learn more ›
×
You can save this tab as Personal to edit and correct it or add notes. All changes will be seen only by you. Learn more »
launch autoscroll
font size
0
reset
how to read this tab
guitar tuner
edit
Autoscroll
slow
fast
+/-
esc
set tempo
stop
Author
Difficulty
intermediate
Please excuse the length, but I find tabs easier to follow when
they're printed this way rather than having "repeat this two-and-a-half times", and 
to it, you'll get it" shoved into your face!

Also, little bits can differ throughout a song, but writing a full length tab catches all the changes.

This is also the first (and probably last) song I've bothered to rouse my lazy self to tab.

So, give it a whirl and tell me if you like it (or if you don't).

Thanks.

All Guitar One:

               (0:00-0:01)
               
(0:01-0:04)
c#|--------|--------|--------|--------|
g#|--------|--------|--------|--------|
e |--------|--------|5-------|------5-|     1.
b |--------|5-------|--------|5-------|
f#|4-------|--------|--------|--------|
B |4-00000-|--00000-|--00000-|--000---|
     .....    .....    .....    ...
(0:04-0:07)
c#|--------|--------|--------|--------|
g#|--------|--------|--------|--------|
e |--------|------4-|--3---4-|3---4-3-|     2.
b |--------|5-------|----5---|--5-----|
f#|4-------|--------|--------|--------|
B |4-00000-|--000---|--------|--------|
     .....    ...
(0:07-0:10)
c#|--------|--------|--------|--------|
g#|--------|--------|--------|--------|
e |--------|--------|5-------|------5-|     3.
b |--------|5-------|--------|5-------|
f#|4-------|--------|--------|--------|
B |4-00000-|--00000-|--00000-|--000---|
     .....    .....    .....    ...
(0:10-0:14)
c#|--------|--------|--------|--------|--------|--------|
g#|--------|--------|--------|--------|--------|--------|
e |--------|------4-|--3---4-|3-----4-|--3---4-|3-------|     4.
b |--------|5-------|----5---|--5-4---|----5---|--5-4-3-|
f#|4-------|--------|--------|--------|--------|--------|
B |4-00000-|--000---|--------|--------|--------|--------|
     .....    ...
(0:14-0:17)
c#|--------|--------|--------|---------------|
g#|--------|--------|--------|---------------|
e |--------|--------|--------|---------------|     5.
b |--------|--------|--------|---------------|
f#|--------|--------|--------|---------------|
B |2---0---|2--/98-|---4--/|7--3-------------|

(0:17-0:19)
c#|--------|--------|--------|---------------|
g#|--------|--------|--------|---------------|
e |--------|--------|--------|---------------|     6.
b |--------|--------|--------|5-8-7-5--------|
f#|--------|--------|----5-7-|---------------|
B |2---0---|2--/98-|--------|----------------|

(0:19-0:22)
c#|--------|--------|--------|---------------|
g#|--------|--------|--------|---------------|
e |--------|--------|--------|---------------|     7.
b |7-5-----|--------|--------|---------------|
f#|--------|--------|--------|---------------|
B |----0-1-|2--/98-|---4--/|7--3-------------|

(0:22-0:25)
c#|--------|--------|--------|---------------|
g#|--------|--------|--------|---------------|
e |--------|--------|--------|---------------|     8.
b |--------|--------|--------|---------------|
f#|--------|--------|--------|---------------|
B |2---0---|2--/98~|--------|----------------|

               (0:25-0:36)
               

(0:36-0:39)
c#|--------|--------|--------|--------|
g#|6-6-6-6-|6-6-6-6-|6-6-6-6-|6-6-6-6-|
e |9-9-9-9-|9-9-9-9-|9-9-9-9-|9-9-9-9-|     9.
b |--------|--------|--------|--------|
f#|--------|--------|--------|--------|
B |--------|--------|--------|--------|

(0:39-0:42)
c#|--------|--------|--------|--------|
g#|6-6-6-6-|6-6-6-6-|6-6-6-6-|6-6-6///|
e |9-9-9-9-|9-9-9-9-|9-9-9-9-|9-9-9///|     10.
b |--------|--------|--------|--------|
f#|--------|--------|--------|--------|
B |--------|--------|--------|--------|

(0:42-0:44)
c#|13131313|13131313|13131313|13131313|
g#|17171717|17171717|17171717|17171717|
e |--------|--------|--------|--------|     11.
b |--------|--------|--------|--------|
f#|--------|--------|--------|--------|
B |--------|--------|--------|--------|

(0:44-0:47)
c#|13131313|13131313|13131313|13131313| (Feedback from other guitar)
g#|17171717|17171717|17171717|17171717|
e |--------|--------|--------|--------|     12.
b |--------|--------|--------|--------|
f#|--------|--------|--------|--------|
B |--------|--------|--------|--------|

(0:47-0:50)
c#|--------|--------|--------|--------|
g#|--------|--------|--------|--------|
e |--------|--------|5-------|------5-|     13.
b |--------|5-------|--------|5-------|
f#|4-------|--------|--------|--------|
B |4-00000-|--00000-|--00000-|--000---|
     .....    .....    .....    ...
(0:50-0:52)
c#|--------|--------|--------|--------|
g#|--------|--------|--------|--------|
e |--------|------4-|--3---4-|3---4-3-|     14.
b |--------|5-------|----5---|--5-----|
f#|4-------|--------|--------|--------|
B |4-00000-|--000---|--------|--------|
     .....    ...

(0:52-0:55)
c#|--------|--------|--------|--------|
g#|--------|--------|--------|--------|
e |--------|--------|5-------|------5-|     15.
b |--------|5-------|--------|5-------|
f#|4-------|--------|--------|--------|
B |4-00000-|--00000-|--00000-|--000---|
     .....    .....    .....    ...
(1:55-1:00)
c#|--------|--------|--------|--------|--------|--------|
g#|--------|--------|--------|--------|--------|--------|
e |--------|------4-|--3---4-|3-----4-|--3---4-|3-------|     16.
b |--------|5-------|----5---|--5-4---|----5---|--5-4-3-|
f#|4-------|--------|--------|--------|--------|--------|
B |4-00000-|--000---|--------|--------|--------|--------|
     .....    ...

(1:00-1:02)
c#|--------|--------|--------|-----------------|
g#|--------|--------|--------|-----------------|
e |--------|--------|--------|--------|     17-|
b |--------|--------|--------|-----------------|
f#|--------|--------|--------|-----------------|
B |2---0---|2--/98-|---4--/|7--3---------------|

(1:02-1:05)
c#|--------|--------|--------|-----------------|
g#|--------|--------|--------|-----------------|
e |--------|--------|--------|--------|     18-|
b |--------|--------|--------|5-8-7-5----------|
f#|--------|--------|----5-7-|-----------------|
B |2---0---|2--/98-|--------|------------------|

(1:05-1:08)
c#|--------|--------|--------|-----------------|
g#|--------|--------|--------|-----------------|
e |--------|--------|--------|--------|     19-|
b |7-5-----|--------|--------|-----------------|
f#|--------|--------|--------|-----------------|
B |----0-1-|2--/98-|---4--/|7--3---------------|

(1:08-1:12)
c#|--------|--------|--------|--------|--------|------------------|
g#|--------|--------|--------|--------|--------|------------------|
e |--------|--------|--------|------4-|--3---4-|3-------|     20--|
b |--------|--------|--------|--------|----5---|--5-4-3-----------|
f#|--------|--------|--------|--------|--------|------------------|
B |2---0---|2--/98~|--------|--------|--------|-------------------|

               (1:12-1:23)
               

(1:23-1:26)
c#|--------|--------|--------|--------|
g#|6-6-6-6-|6-6-6-6-|6-6-6-6-|6-6-6-6-|
e |9-9-9-9-|9-9-9-9-|9-9-9-9-|9-9-9-9-|     21.
b |--------|--------|--------|--------|
f#|--------|--------|--------|--------|
B |--------|--------|--------|--------|

(1:26-1:29)
c#|--------|--------|--------|--------|
g#|6-6-6-6-|6-6-6-6-|6-6-6-6-|6-6-6///|
e |9-9-9-9-|9-9-9-9-|9-9-9-9-|9-9-9///|     22.
b |--------|--------|--------|--------|
f#|--------|--------|--------|--------|
B |--------|--------|--------|--------|

(1:29-1:31)
c#|13131313|13131313|13131313|13131313|
g#|17171717|17171717|17171717|17171717|
e |--------|--------|--------|--------|     23.
b |--------|--------|--------|--------|
f#|--------|--------|--------|--------|
B |--------|--------|--------|--------|

(1:31-1:34)
c#|13131313|13131313|13131313|13131313|
g#|17171717|17171717|17171717|17171717|
e |--------|--------|--------|--------|     24.
b |--------|--------|--------|--------|
f#|--------|--------|--------|--------|
B |--------|--------|--------|--------|

(1:34-1:37)
c#|--------|--------|--------|--------|
g#|--------|--------|--------|--------|
e |--------|--------|5-------|------5-|     25.
b |--------|5-------|--------|5-------|
f#|4-------|--------|--------|--------|
B |4-00000-|--00000-|--00000-|--000---|
     .....    .....    .....    ...
(1:37-1:40)
c#|--------|--------|--------|--------|
g#|--------|--------|--------|--------|
e |--------|------4-|--3---4-|3---4-3-|     26.
b |--------|5-------|----5---|--5-----|
f#|4-------|--------|--------|--------|
B |4-00000-|--000---|--------|--------|
     .....    ...

(1:40-1:43)
c#|--------|--------|--------|--------|
g#|--------|--------|--------|--------|
e |--------|--------|5-------|------5-|     27.
b |--------|5-------|--------|5-------|
f#|4-------|--------|--------|--------|
B |4-00000-|--00000-|--00000-|--000---|
     .....    .....    .....    ...
(1:43-1:47)
c#|--------|--------|--------|--------|--------|--------|
g#|--------|--------|--------|--------|--------|--------|
e |--------|------4-|--3---4-|3-----4-|--3---4-|3-------|     28.
b |--------|5-------|----5---|--5-4---|----5---|--5-4-3-|
f#|4-------|--------|--------|--------|--------|--------|
B |4-00000-|--000---|--------|--------|--------|--------|
     .....    ...

(1:47-1:50)
c#|--------|--------|--------|-----------------|
g#|--------|--------|--------|-----------------|
e |--------|--------|--------|--------|     29-|
b |--------|--------|--------|-----------------|
f#|--------|--------|--------|-----------------|
B |2---0---|2--/98-|---4--/|7--3---------------|

(1:50-1:53)
c#|--------|--------|--------|------------------|
g#|--------|--------|--------|------------------|
e |--------|--------|--------|--------|     30--|
b |--------|--------|--------|5-8-7-5-----------|
f#|--------|--------|----5-7-|------------------|
B |2---0---|2--/98-|--------|-------------------|

(1:53-1:55)
c#|--------|--------|--------|-----------------|
g#|--------|--------|--------|-----------------|
e |--------|--------|--------|--------|     31-|
b |7-5-----|--------|--------|-----------------|
f#|--------|--------|--------|-----------------|
B |----0-1-|2--/98-|---4--/|7--3---------------|

(1:55-1:57)
c#|--------|-----------------|
g#|--------|-----------------|
e |--------|--------|     32-|
b |--------|-----------------|
f#|--------|-----------------|
B |2---0---|2--/98-----------|      And I'm...

                        
(1:58-2:02)
c#|------------|------------|------------|---------------------|
g#|------------|------------|------------|---------------------|
e |------------|------------|------------|------------|     33-|
b |------------|-----------/|9--5---5/7|4--/5--2---------------|
f#|----//10----|----//12----|------------|---------------------|
B |2-----------|0-----------|------------|---------------------|

(2:02-2:06)
c#|------------|------------|------------|---------------------|
g#|------------|------------|------------|---------------------|
e |------------|------------|------------|------------|     34-|
b |------------|-----------/|9--5--/7--/|12-10-9---------------|
f#|----//10----|----//12----|------------|---------------------|
B |2-----------|0-----------|------------|---------------------|

(2:06-2:10)
c#|------------|------------|------------|---------------------|
g#|------------|------------|------------|---------------------|
e |------------|------------|------------|------------|     35-|
b |------------|-----------/|9--5---5/7|4--/5--2---------------|
f#|----//10----|----//12----|------------|---------------------|
B |2-----------|0-----------|------------|---------------------|

(2:10-2:17)
c#|------------|------------|------------|------------|
g#|------------|------------|------------|------------|
e |------------|------------|------------|------------|     36.
b |------------|------------|5--|------------|
f#|----//10----|----//12----|------------|------------|
B |2-----------|0-----------|------------|------------|


                       (2:17-2:19)
                       
(2:19-2:23)
c#|------------|------------|------------|------------|
g#|------------|------------|------------|------------|
e |------------|------------|------------|------------|     37.
b |------------|------------|------------|2-----------|
f#|------------|------------|------------|--6-----5-4-|
B |0-2---0-2---|0-2---0-2---|0-2---0-2-5-|----2-5-----|

(2:23-2:27)
c#|------------|------------|------------|------------|
g#|------------|------------|------------|------------|
e |------------|------------|------------|------------|     38.
b |------------|------------|------------|2-----------|
f#|------------|------------|------------|--6-----5-4-|
B |0-2---0-2---|0-2---0-2---|0-2---0-2-5-|----2-5-----|

(2:27-2:31)
c#|------------|------------|------------|------------|
g#|------------|------------|------------|------------|
e |------------|------------|------------|------------|     39.
b |------------|------------|------------|2-----------|
f#|------------|------------|------------|--6-----5-4-|
B |0-2---0-2---|0-2---0-2---|0-2---0-2-5-|----2-5-----|

(2:31-2:33)
c#|------------|------------|------------|
g#|------------|------------|------------|
e |------------|------------|------------|     40.
b |------------|------------|------------|
f#|------------|------------|------------|
B |0-2---0-2---|0-2---0-2---|0-2---------|

                       (2:33-2:35)
                       
(2:35-2:39)
c#|------------|------------|------------|------------|
g#|------------|------------|------------|------------|
e |------------|------------|------------|------------|     41.
b |4-----4-4---|7-----7-7---|0-----------|------------|
f#|4-----4-4---|7-----7-7---|0-----------|------------|
B |4-----4-4---|7-----7-7---|0-----------|------------|

(2:39-2:43)
c#|------------|------------|------------|------------|
g#|------------|------------|------------|------------|
e |------------|------------|------------|------------|     42.
b |4-----4-4---|7-----7-7---|9-----------|9/109---7---|
f#|4-----4-4---|7-----7-7---|9-----------|9/109---7---|
B |4-----4-4---|7-----7-7---|9-----------|9/109---7---|

(2:43-2:47)
c#|------------|------------|------------|------------|
g#|------------|------------|------------|------------|
e |------------|------------|------------|------------|     43.
b |4-----4-4---|7-----7-7---|0-----------|------------|
f#|4-----4-4---|7-----7-7---|0-----------|------------|
B |4-----4-4---|7-----7-7---|0-----------|------------|

(2:47-2:51)
c#|------------|------------|------------|------------|
g#|------------|------------|------------|------------|
e |------------|------------|------------|------------|     44.
b |4-----4-4---|7-----7-7---|9-----------|9/109---7---|
f#|4-----4-4---|7-----7-7---|9-----------|9/109---7---|
B |4-----4-4---|7-----7-7---|9-----------|9/109---7---|

(2:51-2:54)
c#|------------|------------|------------|------------|
g#|------------|------------|------------|------------|
e |------------|------------|------------|------------|     45.
b |--4---------|--7---------|--0---------|--0---------|
f#|--4---------|--7---------|--0---------|--0---------|
B |4-4---------|7-7---------|0-0---------|0-0---------|
   .            .            .            .
(2:54-2:58)
c#|------------|------------|------------|------------|
g#|------------|------------|------------|------------|
e |------------|------------|------------|------------|     46.
b |4-4---------|7-7---------|9-9---------|9/109---7---|
f#|4-4---------|7-7---------|9-9---------|9/109---7---|
B |4-4---------|7-7---------|9-9---------|9/109---7---|
   .            .            .

(2:58-3:02)
c#|------------|------------|------------|------------|
g#|------------|------------|------------|------------|
e |------------|------------|------------|------------|     47.
b |--4---------|--7---------|--0---------|--0---------|
f#|--4---------|--7---------|--0---------|--0---------|
B |4-4---------|7-7---------|0-0---------|0-0---------|
   .            .            .            .
(3:02-3:06)
c#|------------|------------|------------|------------|
g#|------------|------------|------------|------------|
e |------------|------------|------------|------------|     48.
b |--4---------|--7---------|--9---------|9/109---7---|
f#|--4---------|--7---------|--9---------|9/109---7---|
B |4-4---------|7-7---------|9-9---------|9/109---7---|
   .            .            .
(3:06-3:08)
c#|--------|--------|--------|--------|
g#|--------|--------|--------|--------|
e |--------|--------|--------|--------|     49.
b |----9---|----9---|----7---|----7---|
f#|77777-77|77777-77|55555-55|55555-55|
B |--------|--------|--------|--------|
   ....  .. ....  .. ....  .. ....  ..
(3:08-3:11)
c#|--------|--------|--------|--------|
g#|--------|--------|--------|--------|
e |--------|--------|--------|--------|     50.
b |----10--|----10--|----12--|----12--|
f#|88888-88|88888-88|TTTTT-TT|TTTTT-TT| ( T = 10th Fret for this bit )
B |--------|--------|--------|--------|
   ....  .. ....  .. ....  .. ....  ..
(3:11-3:14)
c#|--------|--------|--------|--------|
g#|--------|--------|--------|--------|
e |--------|--------|--------|--------|     51.
b |----9---|----9---|----7---|----7---|
f#|77777-77|77777-77|55555-55|55555-55|
B |--------|--------|--------|--------|
   ....  .. ....  .. ....  .. ....  ..
(3:14-3:16)
c#|--------|--------|--------|--------|
g#|--------|--------|--------|--------|
e |--------|--------|--------|--------|     52.
b |----10--|----10--|----12--|----12--|
f#|88888-88|88888-88|TTTTT-TT|TTTTT-TT|
B |--------|--------|--------|--------|
   ....  .. ....  .. ....  .. ....  ..

Really love this part.

(3:16-3:19)
c#|--------|--------|--------|--------|
g#|--------|--------|--------|--------|
e |--------|--------|--------|--------|     53.
b |----9---|----9---|----7---|----7---|
f#|77777-77|77777-77|55555-55|55555-55|
B |--------|--------|--------|--------|
   ....  .. ....  .. ....  .. ....  ..
(3:19-3:21)
c#|--------|--------|--------|--------|
g#|--------|--------|--------|--------|
e |--------|--------|--------|--------|     54.
b |----10--|----10--|----12--|----12--|
f#|88888-88|88888-88|TTTTT-TT|TTTTT-TT|
B |--------|--------|--------|--------|
   ....  .. ....  .. ....  .. ....  ..
(3:21-3:24)
c#|--------|--------|--------|--------|
g#|--------|--------|--------|--------|
e |--------|--------|--------|--------|     55.
b |----9---|----9---|----7---|----7---|
f#|77777-77|77777-77|55555-55|55555-55|
B |--------|--------|--------|--------|
   ....  .. ....  .. ....  .. ....  ..
(3:24-3:26)
c#|--------|--------|--------|-----------------|
g#|--------|--------|--------|-----------------|
e |--------|--------|--------|--------|     56-|
b |----10--|----10--|12XXXXXX|12\9-------------|
f#|88888-88|88888-88|10XXXXXX|10\7\|
B |--------|--------|--------|--------|
   ....  .. ....  ..
(3:26-3:28)
c#|7-0-0-7-|0-0-8-0-|8-0-5-0-|
g#|--------|--------|--------|
e |--------|--------|--------|     57.
b |--------|--------|--------|
f#|--------|--------|--------|
B |--------|--------|--------|

(3:28-3:30)
c#|7-0-0-7-|0-0-8-0-|8-0-5-0-|
g#|--------|--------|--------|
e |--------|--------|--------|     58.
b |--------|--------|--------|
f#|--------|--------|--------|
B |--------|--------|--------|

(3:30-3:32)
c#|7-0-0-7-|0-0-8-0-|8-0-5-0-|
g#|--------|--------|--------|
e |--------|--------|--------|     59.
b |--------|--------|--------|
f#|--------|--------|--------|
B |--------|--------|--------|

(3:32-3:34)
c#|7-0-0-7-|0-0-8-0-|8-0-5-0-|
g#|--------|--------|--------|
e |--------|--------|--------|     60.
b |--------|--------|--------|
f#|--------|--------|--------|
B |--------|--------|--------|

(3:34-3:36)
c#|7-0-0-7-|0-0-8-0-|8-0-5-0-|
g#|--------|--------|--------|
e |--------|--------|--------|     61.
b |--------|--------|--------|
f#|--------|--------|--------|
B |--------|--------|--------|

(3:36-3:38)
c#|7-0-0-7-|0-0-8-0-|8-0-5-0-|
g#|--------|--------|--------|
e |--------|--------|--------|     62.
b |--------|--------|--------|
f#|--------|--------|--------|
B |--------|--------|--------|

(3:38-3:40)
c#|7-0-0-7-|0-0-8-0-|8-0-5-0-|
g#|--------|--------|--------|
e |--------|--------|--------|     63.
b |--------|--------|--------|
f#|--------|--------|--------|
B |--------|--------|--------|

(3:40-3:42)
c#|7-0-0-7-|0-0-8-0-|8-0-5-0-|
g#|--------|--------|--------|
e |--------|--------|--------|     64.
b |--------|--------|--------|
f#|--------|--------|--------|
B |--------|--------|--------|


                        
(3:42-3:45)
c#|------------|------------|------------|---------------------|
g#|------------|------------|------------|---------------------|
e |------------|------------|------------|------------|     65-|
b |------------|-----------/|9--5---5/7|4--/5--2---------------|
f#|----//10----|----//12----|------------|---------------------|
B |2-----------|0-----------|------------|---------------------|

(3:45-3:49)
c#|------------|------------|------------|---------------------|
g#|------------|------------|------------|---------------------|
e |------------|------------|------------|------------|     66-|
b |------------|-----------/|9--5--/7--/|12-10-9---------------|
f#|----//10----|----//12----|------------|---------------------|
B |2-----------|0-----------|------------|---------------------|

(3:49-3:53)
c#|------------|------------|------------|---------------------|
g#|------------|------------|------------|---------------------|
e |------------|------------|------------|------------|     67-|
b |------------|-----------/|9--5---5/7|4--/5--2---------------|
f#|----//10----|----//12----|------------|---------------------|
B |2-----------|0-----------|------------|---------------------|

(3:53-4:03)
c#|------------|------------|------------|------------|
g#|------------|------------|------------|------------|
e |------------|------------|------------|------------|     68.
b |------------|------------|5--|------------|
f#|----//10----|----//12----|------------|------------|
B |2-----------|0-----------|------------|------------|

(4:03-Fade-out)
c#|--------|--------|--------|--------|
g#|--------|--------|--------|--------|
e |--------|--------|--------|--------|     69.
b |--------|--------|--------|--------|
f#|--------|--------|--------|--------|
B |2-0-2~--|2-0-2~--|2-0-2~-0|3-3/5-0-|


c#|--------|--------|--------|--------|
g#|--------|--------|--------|--------|
e |--------|--------|--------|--------|     70.
b |--------|--------|--------|--------|
f#|--------|--------|--------|--------|
B |2-0-2~--|2-0-2~--|2-0-2~-0|875-875-|

Now that's just Guitar One remember?....
Don't worry, the numbers on the side do have a use.

Guitar Two is all the same except for the lines:

1,3,13,15,25,27 third & fourth bar in all changes one note
for 2nd guitar from,

c#|--------|--------|--------|--------|
g#|--------|--------|--------|--------|
e |--------|--------|5-------|------5-|
b |--------|5-------|--------|5-------|
f#|4-------|--------|--------|--------|
B |4-00000-|--00000-|--00000-|--000---|
     .....    .....    .....    ...

to,

c#|--------|--------|--------|--------|
g#|--------|--------|--------|--------|
e |--------|--------|--------|--------|
b |--------|5-------|--------|5-------|
f#|4-------|--------|3-------|------3-|
B |4-00000-|--00000-|--00000-|--000---|
     .....    .....    .....    ...

In lines 4, 16, 28, notes go up an octave, from,

c#|--------|--------|--------|--------|--------|--------|
g#|--------|--------|--------|--------|--------|--------|
e |--------|------4-|--3---4-|3-----4-|--3---4-|3-------|
b |--------|5-------|----5---|--5-4---|----5---|--5-4-3-|
f#|4-------|--------|--------|--------|--------|--------|
B |4-00000-|--000---|--------|--------|--------|--------|
     .....    ...

to,

c#|--------|--------|--------|------7-|--6---7-|6-------|
g#|--------|--------|--------|--------|--------|--------|
e |--------|------4-|--3---4-|3-------|----8---|--8-7-6-|
b |--------|5-------|----5---|--5-4---|--------|--------|
f#|4-------|--------|--------|--------|--------|--------|
B |4-00000-|--000---|--------|--------|--------|--------|
     .....    ...

Finally, just after the solo, there's a bit of a stretch...

In lines 59 & 60,

c#|127-7-12|7-7-137-|137-107-|
g#|--------|--------|--------|
e |--------|--------|--------|
b |--------|--------|--------|
f#|--------|--------|--------|
B |--------|--------|--------|

c#|127-7-12|7-7-137-|137-107-|
g#|--------|--------|--------|
e |--------|--------|--------|
b |--------|--------|--------|
f#|--------|--------|--------|
B |--------|--------|--------|

And in lines 63 & 64,

c#|19121219|12122012|20121712|
g#|--------|--------|--------|
e |--------|--------|--------|
b |--------|--------|--------|
f#|--------|--------|--------|
B |--------|--------|--------|

And THAT, is that.

Except for the solo of course.

            
            
Suggest correction
Creating personal tab
Creating personal tab
You can edit any tab online and save it as your Personal.

You can edit, replace or remove any tab part or add personal notes – all changes will be seen only by you.

Personal tabs can be accessed anytime from any device, even offline.
Learn more »
Give kudos to tab author, rate the tab!
1 2 3 4 5
comments
print report bad tab
guest
You may want to rate the tab now too:
select rating
Wanna post a correction for this tab? Suggest correction