Oops, an error
Loading. Please wait.

The End intro tab

version 1
version 1
1,793 views 1 this week
3 commentsread comments
1 2 3 4 5
x 4
add to favorites
×
Save as Personal and add changes to this tab that will be seen only by you. Learn more ›
×
You can save this tab as Personal to edit and correct it or add notes. All changes will be seen only by you. Learn more »
launch autoscroll
font size
0
reset
how to read this tab
guitar tuner
backing track
0:00
0:00
edit
Autoscroll
slow
fast
+/-
esc
set tempo
stop

D--------------------------------------------------------|
A--------------------------------------------------------|
F--------(5)--------------(5)------------------(5)-------|
C----------(5)--------------(5)------------------(5)-----|
G------------(5)--------------(5)--(7)-------------(5)---|
C---2----------------2--5------------------5--7----------|

D---------------(5)---------------------------------------|
A-------------------(5)-----------------------------------|
F----------(5)--------------------------------------------|
C------------(5)------------------------------------------|
G---------------------------------------------------------|
C--7--5--2------------------------------------------------|
Suggest correction
Creating personal tab
Creating personal tab
You can edit any tab online and save it as your Personal.

You can edit, replace or remove any tab part or add personal notes – all changes will be seen only by you.

Personal tabs can be accessed anytime from any device, even offline.
Learn more »
comments
print report bad tab
3 comments total.
0 reply
sam b 10,142 Dec 11, 2005 02:45 AM

it sounds totally wrong when you play along

0 reply
Pimpinguitarist 50 Mar 12, 2006 08:56 AM

yeah the harmonics are off and some 7---5---2 part if that made sense

0 reply
Stevie B 390 Sep 12, 2006 08:42 AM

the harmonics are 5th and 7's on the top 3 strings only

guest
You may want to rate the tab now too:
select rating
Wanna post a correction for this tab? Suggest correction