Oops, an error
Loading. Please wait.

The End Tab

version 1
version 1
4,346 views 15 this week
17 commentsread comments
1 2 3 4 5
x 10
add to favorites
launch autoscroll
font size
0
reset
how to read this tab
guitar tuner
backing track
0:00
0:00
Autoscroll
slow
fast
+/-
esc
set tempo
stop
Author
Difficulty
novice
Roadrunner United
The End
Roadrunner United (2005)
Tuning; CGCFAD
Tabbed by; Carlson2000

^ = Harmonic
~ = Let Ring

Drop-c. listen to harmonics.

Intro/Verse (Play once for intro, x2 for Verse)
===========
-----------------------------------------------------------------------|
-----5^----7^-------5^----7^----------5^----7^---------5^--------3^-5^-|
--------5^-------------5^----7^----------5^---------------5^-----------|
-2-2----------2/5-5-------------5/7-7----------9/7/5-5-------4-4-------|
-2-2----------2/5-5-------------5/7-7----------9/7/5-5-------4-4-------|
-2-2----------2/5-5-------------5/7-7----------9/7/5-5-------4-4-------|

Chorus
======
------------------------------------------|
------------------------------------------|
------------------------------------------|
-22222222-55555555-77777777-10101010-9999-|
-22222222-55555555-77777777-10101010-9999-|
-22222222-55555555-77777777-10101010-9999-|

-----------------------------------|
-----------------------------------|
-----------------------------------|
-22222222-55555555-77777777-10~-9~-|
-22222222-55555555-77777777-10~-9~-|
-22222222-55555555-77777777-10~-9~-|

Repeat Verse
       Chorus

Bridge (Can't figure out what the lead part is at the moment..)
======
----------------------------------------------------------------|
----------------------------------------------------------------|
-555555-44444444-777777--------5555555-44444444-777777-99999999-|
-555555-44444444-777777-222222-5555555-44444444-777777-99999999-| x3
-333333-22222222-555555-222222-3333333-22222222-555555-77777777-|
------------------------222222----------------------------------|

Repeat Verse

Chorus 2
========
---------------------------------|
---------------------------------|
---------------------------------|
-2-2---5-5---7-7---10101010-9999-|
-2-2---5-5---7-7---10101010-9999-|
-2-2---5-5---7-7---10101010-9999-|

Repeat Chorus

Outro
=====
-----------------|
-----------------|
-----------------|
-2-2---5-5---7-7-|
-2-2---5-5---7-7-|
-2-2---5-5---7-7-|

Piano Outro
Suggest correction
comments
print report bad tab
17 comments total. Showing first comments.
0 reply
spill 154 Nov 09, 2005 01:10 AM

well im sorry :'-( iv only been playin guitar 4 a year
hehee nice tab!

0 reply
Carlson-online 147 Nov 09, 2005 03:10 AM

hehe.

no worries.

just seen it at a few other places and so.. yeah :)

good effort though :D good to see people getting into tabbing from early on

0 reply
gitar_norge 75 Nov 21, 2005 01:50 AM

the harmonics work well . CONGRATULATIONS :)

guest
You may want to rate the tab now too:
select rating
Wanna post a correction for this tab? Suggest correction