Oops, an error
Loading. Please wait.

The End Tab

version 2
version 2

Whole song

Interactive

2,814 views 1 this week
1 commentread comment
1 2 3 4 5
please rate
add to favorites
launch autoscroll
font size
0
reset
how to read this tab
guitar tuner
Autoscroll
slow
fast
+/-
esc
set tempo
stop
Help us to improve Ultimate-Guitar.com Take our survey!
×
Author
Key:
* = Natural harmonic
h = hammer on
p = pull off

Please comment and rate. Pretty sure this is pretty much 100%

Tuning is dropped C. CGCFAD (low to high).

Tabbed by Matt Mulartschuk

Lots and lots of reverb!:
0.00-0.34
|-----------------------------------------------------------------------|
|---5*---7*---5*---7*----5*---7*---5*---3*------------------------------|
|-----5*--------5*---7*----5*--------5*---3*----------------------------|
|-----------------------------------------------------------------------|
|-----------------------------------------------------------------------|
|-----------------------------------------------------------------------|

Guitar 2:

|-----------------------------------------------------------------------|
|-----------------------------------------------------------------------|
|-----------------------------------------------------------------------|
|-----------------------------------------------------------------------|
|-----------------------------------------------------------------------|
|-2--2------2-2h5--5--------5--5h7--5----9-7-5---4----------------------|


0.35 - 0.59
|-----------------------------------------------------------------------|
|-----------------------------------------------------------------------|
|-----------------------------------------------------------------------|
|-----------------------------------------------------------------------|
|-22-222-222-222--255-555-555-555--577-777-777-777--799999999-88888888--|
|-22-222-222-222--255-555-555-555--577-777-777-777--799999999-88888888--|


|-------------------------------------------------------------|
|-------------------------------------------------------------|
|-------------------------------------------------------------|
|---------------------------------------------------9----8----|
|-22-222-222-222--255-555-555-555--577-777-777-777--9----8----|
|-22-222-222-222--255-555-555-555--577-777-777-777--9----8----|



1.00 - 1.21
|-----------------------------------------------------------------------|
|---5*---7*---5*---7*----5*---7*---5*---3*------------------------------|
|-----5*--------5*---7*----5*--------5*---3*----------------------------|
|-----------------------------------------------------------------------|
|-----------------------------------------------------------------------|
|-----------------------------------------------------------------------|

1.22 - 1.44
|-----------------------------------------------------------------------|
|-----------------------------------------------------------------------|
|-----------------------------------------------------------------------|
|-----------------------------------------------------------------------|
|-22-222-222-222--255-555-555-555--577-777-777-777--799999999-88888888--|
|-22-222-222-222--255-555-555-555--577-777-777-777--799999999-88888888--|


|-------------------------------------------------------------|
|-------------------------------------------------------------|
|-------------------------------------------------------------|
|---------------------------------------------------9----8----|
|-22-222-222-222--255-555-555-555--577-777-777-777--9----8----|
|-22-222-222-222--255-555-555-555--577-777-777-777--9----8----|


1.45 - 2.20
|-----------------------------------------|
|-----------------------------------------|
|-----------------------------------------|
|-55555555--44444444--77777777--99999999--| x 2
|-55555555--44444444--77777777--99999999--| 
|-55555555--44444444--77777777--99999999--|


2.21 - 2.43
|-----------------------------------------------------------------------|
|---5*---7*---5*---7*----5*---7*---5*---3*------------------------------|
|-----5*--------5*---7*----5*--------5*---3*----------------------------|
|-----------------------------------------------------------------------|
|-----------------------------------------------------------------------|
|-----------------------------------------------------------------------|

Guitar 2:

|-----------------------------------------------------------------------|
|-----------------------------------------------------------------------|
|-----------------------------------------------------------------------|
|-----------------------------------------------------------------------|
|-----------------------------------------------------------------------|
|-2--2------2-2h5--5--------5--5h7--5----9-7-5---4----------------------|


Fill.
2.44 - 2.55
|----------------------|
|----------------------|
|----------------------|
|-22--55--77---9---8---|
|-22--55--77---9---8---|
|-22--55--77---9---8---|


2.56 - 3.15
|-----------------------------------------------------------------------|
|-----------------------------------------------------------------------|
|-----------------------------------------------------------------------|
|-----------------------------------------------------------------------|
|-22-222-222-222--255-555-555-555--577-777-777-777--799999999-88888888--|
|-22-222-222-222--255-555-555-555--577-777-777-777--799999999-88888888--|


|-------------------------------------------------------------|
|-------------------------------------------------------------|
|-------------------------------------------------------------|
|---------------------------------------------------9----8----|
|-22-222-222-222--255-555-555-555--577-777-777-777--9----8----|
|-22-222-222-222--255-555-555-555--577-777-777-777--9----8----|


3.16 - End
|-----------------------------------------------------------------------|
|---5*---7*---5*---7*----5*---7*---5*---3*------------------------------|
|-----5*--------5*---7*----5*--------5*---3*----------------------------|
|-----------------------------------------------------------------------|
|-----------------------------------------------------------------------|
|-----------------------------------------------------------------------|


Suggest correction
Give kudos to tab author, rate the tab!
1 2 3 4 5
comments
print report bad tab
1 comment total.
0 reply
CrazzyMike 78 wrote on January 8 2011, 05:05 am

i miss the solo at 1:55 till 2:22 D:

guest
You may want to rate the tab now too:
select rating
Wanna post a correction for this tab? Suggest correction