Oops, an error
Loading. Please wait.

The End Tab

version 2
version 2
5,539 views 9 this week
2 commentsread comments
1 2 3 4 5
x 4
add to favorites
launch autoscroll
font size
0
reset
how to read this tab
guitar tuner
backing track
0:00
0:00
×
Best way to learn
"The End"
Autoscroll
slow
fast
+/-
esc
set tempo
stop
Author
Difficulty
  follow
novice
The End
Roadrunner United
Guitar 1
Tabbed By: Chris Wheeler

Intro/Verse Clean
D|-----------------------------5*7*-|
A|5*--7*--5*--7*---5*--7*--5*-------|
F|--5*------5*--7*---5*------5*-----|
C|----------------------------------|X3
G|----------------------------------|
C|----------------------------------|

Chorus
D|------------------------------------------------------------------------|
A|------------------------------------------------------------------------|
F|------------------------------------2-22-2-22-2222222-5-55-5-54-4444444-|
C|2-22-2-22-2222222-5-55-5-55-5555555-2-22-2-22-2222222-5-55-5-54-4444444-|
G|2-22-2-22-2222222-5-55-5-55-5555555-0-00-0-00-0000000-3-33-3-32-2222222-|
C|2-22-2-22-2222222-5-55-5-55-5555555-------------------------------------|

D|------------------------------------------------------------|
A|------------------------------------------------------------|
F|------------------------------------2-22-2-22-2222222-5--4--|
C|2-22-2-22-2222222-5-55-5-55-5555555-2-22-2-22-2222222-5--4--|
G|2-22-2-22-2222222-5-55-5-55-5555555-0-00-0-00-0000000-3--2--|
C|2-22-2-22-2222222-5-55-5-55-5555555-------------------------|

Verse 2
D|-----------------------------5*7*-|
A|5*--7*--5*--7*---5*--7*--5*-------|
F|--5*------5*--7*---5*------5*-----|
C|----------------------------------|X2
G|----------------------------------|
C|----------------------------------|

Chorus
D|------------------------------------------------------------------------|
A|------------------------------------------------------------------------|
F|------------------------------------2-22-2-22-2222222-5-55-5-54-4444444-|
C|2-22-2-22-2222222-5-55-5-55-5555555-2-22-2-22-2222222-5-55-5-54-4444444-|
G|2-22-2-22-2222222-5-55-5-55-5555555-0-00-0-00-0000000-3-33-3-32-2222222-|
C|2-22-2-22-2222222-5-55-5-55-5555555-------------------------------------|

D|------------------------------------------------------------|
A|------------------------------------------------------------|
F|------------------------------------2-22-2-22-2222222-5--4--|
C|2-22-2-22-2222222-5-55-5-55-5555555-2-22-2-22-2222222-5--4--|
G|2-22-2-22-2222222-5-55-5-55-5555555-0-00-0-00-0000000-3--2--|
C|2-22-2-22-2222222-5-55-5-55-5555555-------------------------|







Bridge
D|----------------------------------|
A|----------------------------------|
F|5-55-5-54-44444447777777744444444-|
C|5-55-5-54-44444447777777744444444-|
G|3-33-3-32-22222225555555522222222-|
C|----------------------------------|

D|----------------------------------|
A|----------------------------------|
F|5-55-5-54-44444447777777-99999999-|
C|5-55-5-54-44444447777777-99999999-|
G|3-33-3-32-22222225555555-77777777-|
C|----------------------------------|

Solo(hard to hear)
D|-------------------------------------------------------------|
A|-------------------12----------------------------------------|
F|---11~12~14~----11~---14~17b17p16-14b-16-14ph~---------------|
C|14~----------14~------------------------------17-16--17-16~~-|
G|---------------------------------------------------17--------|
C|-------------------------------------------------------------|

Solo Continued
D|------------------------------------------22b~-|
A|19b19-15----19b19-15----19b19-15----19b19------|
F|---------16----------16----------16------------|
C|-----------------------------------------------|
G|-----------------------------------------------|
C|-----------------------------------------------|

Verse 3
D|-----------------------------5*7*-|
A|5*--7*--5*--7*---5*--7*--5*-------|
F|--5*------5*--7*---5*------5*-----|
C|----------------------------------|X2
G|----------------------------------|
C|----------------------------------|

D|----------------------|
A|----------------------|
F|----------------------|
C|2-2--2-2--5-5-5555555-|
G|2-2--2-2--5-5-5555555-|
C|2-2--2-2--5-5-5555555-|

Chorus
D|------------------------------------------------------------------------|
A|------------------------------------------------------------------------|
F|------------------------------------2-22-2-22-2222222-5-55-5-54-4444444-|
C|2-22-2-22-2222222-5-55-5-55-5555555-2-22-2-22-2222222-5-55-5-54-4444444-|X2
G|2-22-2-22-2222222-5-55-5-55-5555555-0-00-0-00-0000000-3-33-3-32-2222222-|
C|2-22-2-22-2222222-5-55-5-55-5555555-------------------------------------|




D|------------------------------------------------------|
A|------------------------------------------------------|
F|------------------------------------2-22-2-22-2222222-|
C|2-22-2-22-2222222-5-55-5-55-5555555-2-22-2-22-2222222-|
G|2-22-2-22-2222222-5-55-5-55-5555555-0-00-0-00-0000000-|
C|2-22-2-22-2222222-5-55-5-55-5555555-------------------|
Suggest correction
comments
print report bad tab
2 comments total.
0 reply
killswitch_mike 785 Mar 24, 2006 07:56 AM

This Sounds Good!, But isnt the pitch on the intro a bit higher than you hear it? Move Your Tab up a string then it sounds better but you only need to change the ending, This is also played on a seven string by Dino Cazares as discussed in the other tab by Carlson2000, it is good though, i'll give you 4 stars

0 reply
Trivium711 16 Dec 04, 2006 08:52 PM

good tab, the solo sounds pretty right, i only played it like twice with the song but it sounded alright, anyway thanks for puttin up the solo - 5 stars!

guest
You may want to rate the tab now too:
select rating
Wanna post a correction for this tab? Suggest correction