Oops, an error
Loading. Please wait.

Morning Light bass

by Roads
90 views 1 this week
no commentswrite comment
1 2 3 4 5
3 more votes to show rating
add to favorites
×
Save as Personal and add changes to this tab that will be seen only by you. Learn more ›
×
You can save this tab as Personal to edit and correct it or add notes. All changes will be seen only by you. Learn more »
launch autoscroll
font size
0
reset
guitar tuner
edit
Autoscroll
slow
fast
+/-
esc
set tempo
stop
Author
Band: ROADS
Song: Morning Light
Album: Remember Today

(/) Slide Up  (\) Slide Down  (h) Hammer On  (p) Pull Off  (b) Bend (r) Release 
(v) Vibrato (x) Mute

INTRO :

G|---------------------------------------------------------|
D|----------------------6-------6----------------------6---|
A|-4-----4-----------6-----x-6-----4-----4-----------6-----|
E|----4-----x-2-3-4-------------------4-----x-2-3-4--------|

VERSE 1 :

G|-----------------------------------|
D|----------------------6-------6----|
A|-4-----4-----------6-------6-------|
E|----4-----x-2-3-4------------------|

*VERSE 1 X2

THEN...

G|------------------------------------------------|
D|----------------------6----6-5-4----4-----4-----|
A|-4-----4-----------6-----6-------4------4-------|
E|----4-----x-2-3-4---------------------------4---|

*VERSE 1 X2

THEN...

G|---------------------------------------------------------|
D|----------------------6----6-5-4-------------------------|
A|-4-----4-----------6-----6-------4-----------------------|
E|----4-----0-2-3-4------------------5-x-4--2-3-4----------|

CHORUS :

G|-------------------------2-2-----------------------------------------------------------|
D|-2-----2-----------6----------2-----2-----------------------2---2-x-4/6---2------------|
A|----2---------2-4-----0----------2---------2-4-----0--x-2-4---4---------2------2-4-----|
E|----------x-4--------------------------x-4------4---------------------------4------4---|

G|--------------------------------2------------------------------2----------------------|
D|--2-x-4/6-----2--------------x-----2----2----2--------------2----2--------------------|
A|-----------2-------2--4----0---------2-----2------2--4---0---------0------------------|
E|----------------4-------4-----------------------4------4------------------------------|

BRIDGE :

G|---------------------------------------------------------------------------------------|
D|-4--4----2-4--4------2--2--2-4-6--6--7-6-4--4---2--4--4----2-4-6-6-6-6-6--6------------|
A|-------4---------2-4--------------------------4----------4------------------6----------|
E|------------------------------------------------------------------------------4--------|

Back to VERSE 1 BASSLINE X 2

BREAK

VERSE 1 X1

THEN...

G|--------------------------------------------------------------------|
D|----------------------6--6-x-5-4------------------------7-7-7-7-----|
A|-4-----4-----------6----6-------4-----------------------------------|
E|----4-----0-2-3-4------------------5-x-4--2-3-4--4---4-----------4--|

CHORUS BASS LINE UNTIL THE END...

 there's some small variations.. listen carefully to the recording...

Fade out....

            
            
Suggest correction
Creating personal tab
Creating personal tab
You can edit any tab online and save it as your Personal.

You can edit, replace or remove any tab part or add personal notes – all changes will be seen only by you.

Personal tabs can be accessed anytime from any device, even offline.
Learn more »
Give kudos to tab author, rate the tab!
1 2 3 4 5
comments
print report bad tab
guest
You may want to rate the tab now too:
select rating
Wanna post a correction for this tab? Suggest correction