Oops, an error
Loading. Please wait.

Poor Grammar Bass Tab

by ROAR
1 view 1 this week
no commentswrite comment
1 2 3 4 5
3 more votes to show rating
add to favorites
launch autoscroll
font size
0
reset
guitar tuner
Autoscroll
slow
fast
+/-
esc
set tempo
stop
Help us to improve Ultimate-Guitar.com Take our survey!
×
Author
Difficulty
novice
About this tab version
Simplified bass tab for poor grammar by ROAR. standard tuning. changed alot of it to quarter notes from eighth notes, but can be played either way, just listen in to see where the eighth notes would be. Was this info helpful? Yes No
ARTIST: ROAR

ALBUM: I'm Not Here To Make Friends

Part Tabbed: whole song

Tabbed by myself, sputnikfive
---------------------------------------------------------
---------------------------------------------------------
4. Poor Grammar


[Intro]
00:00-00:22 
G|---------------------------------------------------------------------------|
D|--3-2--------0-------------------------------------------------------------|
A|-------5-3------3---0----------5-5-7-7-8-8-7-7-----------------------------|
E|-----------------------8---------------------------------------------------|

G|---------------------------------------------------------------------------|
D|---------------------------------------------------------------------------|
A|---------------------------------------------------------------------------|
E|-5-5--5-5--5-5--5-4-3-3---3-3---3-3---3-3----------------------------------|  

x2

[Verse]
00:23-00:45

G|---------------------------------------------------------------------------|
D|---3-2----------0----------------------------------------------------------|
A|---------5-3------3----0-------5-5-7-7-8-8-10-10---------------------------|
E|--------------------------8------------------------------------------------|


G|---------------------------------------------------------------------------|
D|---------------------------------------------------------------------------|
A|-----------7-6-5-4---------------------------------------------------------|
E|--5-5-5-5-----------3-3-3-3--8-8-8-8---------------------------------------| 
-
x2

[Chorus]
1:07-1:30

G|---------------------------------------------------------------------------|
D|---------------------------------------------------------------------------|
A|-1-1--3-3--5-5--7-7-10-10-10-10-7-7-7-7------0-0--2-2--3-3--5-5------------|
E|---------------------------------------------------------------------------| 


G|---------------------------------------------------------------------------|
D|---------------------------------------------------------------------------|
A|-7-7--7-7--5-5--5-5--------------------------------------------------------|
E|---------------------------------------------------------------------------| 

x2

[Break]
1:30-1:46

G|---------------------------------------------------------------------------|
D|---------------------------------------------------------------------------|
A|--7--7--7--7----10--7--5--4-----3-3-3-3-0-0-7-6-5-5-5-5-10-10-10-10--------|
E|---------------------------------------------------------------------------|

G|---------------------------------------------------------------------------|
D|-------------5--5--5--6------7-7-7-7-5-5-5-5-3-3-3-3-5-5-5-5---------------|
A|-7--7--7--7----------------------------------------------------------------|
E|---------------------------------------------------------------------------|

[Outro]
1:58-2:07

G|---------------------------------------------------------------------------|
D|---------------------------------------------------------------------------|
A|---3-3-3-3--5-5-3-3--3-3-3-3--5-5-3-3---5-5-7-7-8-8-7-6-5------------------|
E|---------------------------------------------------------------------------|

************************************

| x   Dead note
| g   Grace note
| (n) Ghost note
| h   Hammer-on
| p   Pull-off
| r   Release
| >   Accented note
| t   Tapping
| b   Bend
| br  Bend release
| pb  Pre-bend
| pbr Pre-bend release
| /   Slide up
| \   Slide down
| ~   Vibrato
| s   Slap
| P   Pop
| PM  Palm mute
| TR  Trill
| N   Tremolo

************************************
Suggest correction
Give kudos to tab author, rate the tab!
1 2 3 4 5
comments
print report bad tab
guest
You may want to rate the tab now too:
select rating
Wanna post a correction for this tab? Suggest correction