Oops, an error
Loading. Please wait.

It Takes Two Bass Tab

2,799 views 1 this week
no commentswrite comment
1 2 3 4 5
accurate
x 3
add to favorites
launch autoscroll
font size
0
reset
guitar tuner
Autoscroll
slow
fast
+/-
esc
set tempo
stop
Help us to improve Ultimate-Guitar.com Take our survey!
×
http://www.robbase.net/home.htm
Artist: Rob Base
Song: It Takes Two
Tuning: Standard

 h - hammer

G |----------------------------------------------------------|
D |----------------------------------------------------------|
A |----------------------------------------------------------|
E |---2h3----2h3----2h3----2h3----2h3----2h3----2h3----2h3---|

                 ~no bass~


G |----------------------------------------------------------|
D |----------------------------------------------------------|
A |----------------------------------------------------------|
E |---2h3----2h3----2h3----2h3----2h3----2h3----2h3----2h3---|

                 ~no bass~


G |----------------------------------------------------------|
D |----------------------------------------------------------|
A |----------------------------------------------------------|
E |---2h3----2h3----2h3----2h3----2h3----2h3----2h3----2h3---|

                 ~no bass~


G |----------------------------------------------------------|
D |----------------------------------------------------------|
A |----------------------------------------------------------|
E |---2h3----2h3----2h3----2h3----2h3----2h3----2h3----2h3---|

                 ~no bass~


G |----------------------------------------------------------|
D |----------------------------------------------------------|
A |----------------------------------------------------------|
E |---2h3----2h3----2h3----2h3----2h3----2h3----2h3----2h3---|

That's it, very simple. Some places where there is no bass are longer than others so 
closely, you'll know when it's coming though.
Suggest correction
Give kudos to tab author, rate the tab!
1 2 3 4 5
comments
print report bad tab
guest
You may want to rate the tab now too:
select rating
Wanna post a correction for this tab? Suggest correction