Oops, an error
Loading. Please wait.

Shia Labeouf Actual Cannibal bass

4,371 views 9 this week
2 commentsread comments
1 2 3 4 5
x 6
add to favorites
×
Save as Personal and add changes to this tab that will be seen only by you. Learn more ›
×
You can save this tab as Personal to edit and correct it or add notes. All changes will be seen only by you. Learn more »
launch autoscroll
font size
0
reset
guitar tuner
edit
Autoscroll
slow
fast
+/-
esc
set tempo
stop
---------------------------------------------------------------------------------
Shia Labeouf (Actual Cannibal) - Rob Cantor - http://www.robcantor.com/index.html
---------------------------------------------------------------------------------
Tabbed by: Kadir

Tuning: Standard (EADG)

=========================================================================

     1 e + a 2 e + a 3 e + a 4 e + a 1 e + a 2 e + a 3 e + a 4 e + a 
G|------------------------------------------------------------------------|
D|-------------------5-------------------------------5--------------------|
A|---3-------------------------------3------------------------------------|
E|------------------------------------------------------------------------|

     1 e + a 2 e + a 3 e + a 4 e + a 1 e + a 2 e + a 3 e + a 4 e + a 
G|------------------------------------------------------------------------|
D|------------------------------------------------------------------------|
A|---3--------------------------------------------------------------------|
E|-------------------3-------------/-8------------------------------------|

     1 e + a 2 e + a 3 e + a 4 e + a 1 e + a 2 e + a 3 e + a 4 e + a 
G|------------------------------------------------------------------------|
D|-------------------5---5---------------------------5---5----------------|
A|---3-------------3-----------------3-------------3----------------------|
E|------------------------------------------------------------------------|

     1 e + a 2 e + a 3 e + a 4 e + a 1 e + a 2 e + a 3 e + a 4 e + a 
G|------------------------------------------------------------------------|
D|------------------------------------------------------------------------|
A|---3-------------3-------------1---3------------------------------------|
E|-------------------3---3------------------------------------------------|

     1 e + a 2 e + a 3 e + a 4 e + a 1 e + a 2 e + a 3 e + a 4 e + a 
G|------------------------------------------------------------------------|
D|-------------------5---5---------------------------5---5----------------|
A|---3-------------3-----------------3-------------3----------------------|
E|------------------------------------------------------------------------|

     1 e + a 2 e + a 3 e + a 4 e + a 1 e + a 2 e + a 3 e + a 4 e + a 
G|------------------------------------------------------------------------|
D|------------------------------------------------------------------------|
A|---3-------------3-------------1---3------------------------------------|
E|-------------------3---3------------------------------------------------|

     1 e + a 2 e + a 3 e + a 4 e + a 1 e + a 2 e + a 3 e + a 4 e + a 
G|------------------------------------------------------------------------|
D|------------------------------------------------------------------------|
A|---8-------------8-8---8---------\-3-------------3-3---3----------------|
E|------------------------------------------------------------------------|

     1 e + a 2 e + a 3 e + a 4 e + a 1 e + a 2 e + a 3 e + a 4 e + a 
G|------------------------------------------------------------------------|
D|------------------------------------------------------------------------|
A|------------------------------------------------------------------------|
E|---4-------------------4---------/-8------------------------------------|

     1 e + a 2 e + a 3 e + a 4 e + a 1 e + a 2 e + a 3 e + a 4 e + a 
G|------------------------------------------------------------------------|
D|------------------------------------------------------------------------|
A|---8-------------8-8---8---------\-3-------------3-3---3----------------|
E|------------------------------------------------------------------------|

     1 e + a 2 e + a 3 e + a 4 e + a 1 e + a 2 e + a 3 e + a 4 e + a 
G|------------------------------------------------------------------------|
D|------------------------------------------------------------------------|
A|------------------------------------------------------------------------|
E|---4-------------4-4---4-----------3------------------------------------|

     1 e + a 2 e + a 3 e + a 4 e + a 1 e + a 2 e + a 3 e + a 4 e + a 
G|------------------------------------------------------------------------|
D|-------------------5---5---------------------------5---5----------------|
A|---3-------------3-----------------3-------------3----------------------|
E|------------------------------------------------------------------------|

     1 e + a 2 e + a 3 e + a 4 e + a 1 e + a 2 e + a 3 e + a 4 e + a 
G|------------------------------------------------------------------------|
D|-------------------5---5------------------------------------------------|
A|---3-------------3-----------------3------------------------------------|
E|------------------------------------------------------------------------|

     1 e + a 2 e + a 3 e + a 4 e + a 1 e + a 2 e + a 3 e + a 4 e + a 
G|------------------------------------------------------------------------|
D|-------------------5---5---------------------------5---5----------------|
A|---3-------------3-----------------3-------------3----------------------|
E|------------------------------------------------------------------------|

     1 e + a 2 e + a 3 e + a 4 e + a 1 e + a 2 e + a 3 e + a 4 e + a 
G|------------------------------------------------------------------------|
D|-------------------5---5------------------------------------------------|
A|---3-------------3-----------------3------------------------------------|
E|------------------------------------------------------------------------|

     1 e + a 2 e + a 3 e + a 4 e + a 1 e + a 2 e + a 3 e + a 4 e + a 
G|------------------------------------------------------------------------|
D|------------------------------------------------------------------------|
A|---8-------------8-8---8---------\-3-------------3-3---3----------------|
E|------------------------------------------------------------------------|

     1 e + a 2 e + a 3 e + a 4 e + a 1 e + a 2 e + a 3 e + a 4 e + a 
G|------------------------------------------------------------------------|
D|------------------------------------------------------------------------|
A|------------------------------------------------------------------------|
E|---4-------------------4---------/-8------------------------------------|

     1 e + a 2 e + a 3 e + a 4 e + a 1 e + a 2 e + a 3 e + a 4 e + a 
G|------------------------------------------------------------------------|
D|------------------------------------------------------------------------|
A|---8-------------8-8---8---------\-3-------------3-3---3----------------|
E|------------------------------------------------------------------------|

     1 e + a 2 e + a 3 e + a 4 e + a 1 e + a 2 e + a 3 e + a 4 e + a 
G|------------------------------------------------------------------------|
D|------------------------------------------------------------------------|
A|------------------------------------------------------------------------|
E|---4-------------4-4---4-----------3------------------------------------|

     1 e + a 2 e + a 3 e + a 4 e + a 1 e + a 2 e + a 3 e + a 4 e + a 
G|------------------------------------------------------------------------|
D|------------------------------------------------------------------------|
A|---8-------------8-8---8---------\-3-------------3-3---3----------------|
E|------------------------------------------------------------------------|

     1 e + a 2 e + a 3 e + a 4 e + a 1 e + a 2 e + a 3 e + a 4 e + a 
G|------------------------------------------------------------------------|
D|------------------------------------------------------------------------|
A|------------------------------------------------------------------------|
E|---4-------------4-4---4-----------3------------------------------------|

     1 e + a 2 e + a 3 e + a 4 e + a 1 e + a 2 e + a 3 e + a 4 e + a 
G|------------------------------------------------------------------------|
D|-------------------5---5---------------------------5---5----------------|
A|---3-------------3-----------------3-------------3----------------------|
E|------------------------------------------------------------------------|

     1 e + a 2 e + a 3 e + a 4 e + a 1 e + a 2 e + a 3 e + a 4 e + a 
G|------------------------------------------------------------------------|
D|-------------------5---5------------------------------------------------|
A|---3-------------3-----------------3------------------------------------|
E|------------------------------------------------------------------------|
                                            ...you have beaten Shia Labeouf

 | /  slide up
 | \  slide down

===========================================================================
Suggest correction
Creating personal tab
Creating personal tab
You can edit any tab online and save it as your Personal.

You can edit, replace or remove any tab part or add personal notes – all changes will be seen only by you.

Personal tabs can be accessed anytime from any device, even offline.
Learn more »
comments
print report bad tab
2 comments total.
0 reply
grantwurry 160 Oct 23, 2014 05:27 PM

Thank you so much for tabbing the greatest song ever created

0 reply
19power99 10 Jul 18, 2015 02:49 AM

great tab! but you forgot the ending..

guest
You may want to rate the tab now too:
select rating
Wanna post a correction for this tab? Suggest correction