Oops, an error
Loading. Please wait.

Unstable tab

115 views 1 this week
no commentswrite comment
1 2 3 4 5
2 more votes to show rating
add to favorites
×
Save as Personal and add changes to this tab that will be seen only by you. Learn more ›
×
You can save this tab as Personal to edit and correct it or add notes. All changes will be seen only by you. Learn more »
launch autoscroll
font size
0
reset
how to read this tab
guitar tuner
edit
Autoscroll
slow
fast
+/-
esc
set tempo
stop
Author
Difficulty
“Unstable” from “He Thinks He's People”
Written by Rob Crow
submitted by mallowman456@yahoo.com
May not be exact but hopefully it helps someone out there.


E|-------------------------------------------------------------------|
B|------------7---7---7----------------------------------------------|
G|--7---7-6--(6)--6---6----------------------------------------------|
D|----0-----0--------------------------------------------------------|
A|--5----------------------------------------------------------------|
E|--------------7---5------------------------------------------------|

    Unstable airline
    Cracked at the hairline


E|-------------------------------------------------------------------|
B|-------------------------------------------------------------------|
G|--3----3-2p0-----------0-------------------------------------------|
D|----0--------0-------0---------------------------------------------|
A|--1---------------1------------------------------------------------|
E|---------------3---------3-----------------------------------------|

    It's pathetic
    I'm pathetic


E|-------------------------------------------------------------------|
B|-------------------------------------------------------------------|
G|--10--10--10---9---9---9--6--6--6--6/7--7--7-----------------------|
D|-------------------------------------------------------------------|
A|-------------------------------------------------------------------|
E|--10--10--10--10--10--10--5--5--5--5/6--6--6-----------------------|

    When it's time to go, I won't be ready
    I will complain, and I will act shitty


E|-------------------------------------------------------------------|
B|-------------------------------------------------------------------|
G|--7---7-7-7-7--7--7--7--7--7--7-7-7--------------------------------|
D|--7---7-7-7-7--7--7--7--7--7--7-7-7--------------------------------|
A|--5---5-5-5-5------------------------------------------------------|
E|---------------7--5--6--6--6--6-6-6--------------------------------|

                           Tonight,
                           While all the world sleeps
                           Not I,
                           I'll be staring at these walls

E|-------------------------------------------------------------------|
B|-------------------------------------------------------------------|
G|--4---------------------------------------4------------------------|
D|--5---------------------------------------7------------------------|
A|--5---------------------------------------5------------------------|
E|--3---------------------------------------2------------------------|

                                            with or with-
   out; any alcohol;                         with or with-
   out; any protocol;                        with or with-
   out; anything at all;                     with or with-
   out; the sheet's drenched in sweat & all; I can't go with
   them

            
            
Suggest correction
Creating personal tab
Creating personal tab
You can edit any tab online and save it as your Personal.

You can edit, replace or remove any tab part or add personal notes – all changes will be seen only by you.

Personal tabs can be accessed anytime from any device, even offline.
Learn more »
Give kudos to tab author, rate the tab!
1 2 3 4 5
comments
print report bad tab
guest
You may want to rate the tab now too:
select rating
Wanna post a correction for this tab? Suggest correction