Oops, an error
Loading. Please wait.

For That Second Tab

version 1
version 1

Whole song

Interactive

32,284 views 357 this week
2 commentsread comments
1 2 3 4 5
x 33
add to favorites
launch autoscroll
font size
0
reset
how to read this tab
guitar tuner
Autoscroll
slow
fast
+/-
esc
set tempo
stop
Help us to improve Ultimate-Guitar.com Take our survey!
×
S S S S Q    S S S S Q       S S S S Q    S S S S Q     
e||----------------------------|----------------------------|
B||----------------------------|----------------------------|
G||------4-L-L--------2-L-L----|----------------------------|
D||----5------------4----------|------5-L-L--------4-L-L----|
A||--7------------5------------|----7------------5----------|
E||----------------------------|--8------------7------------|


     S S S S Q    S S S S  S  E.      S S S S Q    S S S S Q     
e|--15-----L-L------------14--L---|--15-----L-L-----------------|
B|--------------------------------|-----------------------------|
G|-------4------------2-L---------|-----------------------------|
D|-----5------------4-------------|-------5------------4-L-L----|
A|---7------------5---------------|-----7------------5----------|
E|--------------------------------|---8------------7------------|


    S S S  S  S S S  S S S S  S  S S S  S  
e|------------------15-----------------14-|
B|-----------12-0---------------12-0------|
G|------4-----------12-----2-----------11-|
D|----5---12------5------4---12------4----|
A|--7------------------5------------------|
E|----------------------------------------|


    S S S  S  S S S  S  S   S  S   S  S   S  S  S  
e|------------------15-(0)--------15-(0)----------|
B|-----------12-0----------15-(0)--------12-13-12-|
G|------------------12-(0)--------12-(0)----------|
D|------5-12------5--------12-(5)-----------------|
A|----7-------------------------------------------|
E|--8---------------------------------------------|


    S S S  S  S S S  S S S S  S  S S S  S    S S E   Q    H         
e|-----------15-0---------------14-0------|------------------------|
B|------------------12-----------------12-|---------12----8--------|
G|------4-12------4--------2-11------2----|------------------------|
D|----5-------------12---4-------------12-|------5--12----9--------|
A|--7------------------5------------------|----7-------------------|
E|----------------------------------------|--8---------------------|


    S S S  S  S S S  S S S S  S  S S S  S  
e|------------------15-----------------14-|
B|-----------12-0---------------12-0------|
G|------4-----------12-----2-----------11-|
D|----5---12------5------4---12------4----|
A|--7------------------5------------------|
E|----------------------------------------|


    S S S  S  S S S  S  S   S  S   S  S   S  S  S  
e|------------------15-(0)--------15-(0)----------|
B|-----------12-0----------15-(0)--------12-13-12-|
G|------------------12-(0)--------12-(0)----------|
D|------5-12------5--------12-(5)-----------------|
A|----7-------------------------------------------|
E|--8---------------------------------------------|


    S S S  S  S S S  S S S S  S  S S S  S  
e|-----------15-0---------------14-0------|
B|------------------12-----------------12-|
G|------4-12------4--------2-11------2----|
D|----5-------------12---4-------------12-|
A|--7------------------5------------------|
E|----------------------------------------|


    S S S  S  S S S  S S  S S  S S  S E   
e|----------------------------15-0-------|
B|-----------12-0--------12-0------15-0--|
G|------------------12-0-----------------|
D|------5-12------5----------------------|
A|----7----------------------------------|
E|--8------------------------------------|


     S  S S S  S  S S S  S  S S S  S  S S S  
e|------------------------------------------|
B|-----12-0------12-0------12-0------12-0---|
G|------------------------------------------|
D|--12------0-12------0-12------0-12------0-|
A|---7--------------------------------------|
E|---8--------------------------------------|


     S  S S S  S  S S S  S  S S S  S  S S S  
e|------------------------------------------|
B|-----12-0------12-0------12-0------12-0---|
G|------------------------------------------|
D|--12------0-12------0-12------0-12------0-|
A|---2--------------------------------------|
E|---3--------------------------------------|


     S  S S S  S  S S S  S  S S  S  S  S S S  
e|-------------------------------------------|
B|-----12-0------12-0------12-0-------12-0---|
G|-------------------------------------------|
D|--12------0-12------0-12-------0-12------0-|
A|---7------------------------------9--------|
E|---8--------------------------10-----------|


     S  S S S  S  S S S  S  S S S  S  S S S  
e|-----------------------3---------2------0-|
B|-----12-0------12-0------12-0------12-0---|
G|------------------------------------------|
D|--12------0-12------0-12------0-12------0-|
A|---2--------------------------------------|
E|---3--------------------------------------|


     S  S S S  S  S S S  S  S S  S  S  S S S  
e|-------------------------------------------|
B|-----12-0------12-0------12-0-------12-0---|
G|-------------------------------------------|
D|--12------0-12------0-12-------0-12------0-|
A|---7------------------------------9--------|
E|---8--------------------------10-----------|


     S  S S S  S  S S S  S  S S S  S  S S S  
e|-----------------------7---------0--------|
B|-----12-0------12-0------12-0------12-0---|
G|------------------------------------------|
D|--12------0-12------0-12------0-12------0-|
A|---2--------------------------------------|
E|---3--------------------------------------|


     S  S S S  S  S S S  S  S S  S  S  S S S  
e|-------------------------------------------|
B|-----12-0------12-0------12-0-------12-0---|
G|-------------------------------------------|
D|--12------0-12------0-12-------0-12------0-|
A|---7------------------------------9--------|
E|---8--------------------------10-----------|


     S  S S S  S  S S S  S  S S S  S  S S S  
e|------------------------------------------|
B|-----12-0------12-0------12-0------12-0---|
G|------------------------------------------|
D|--12------0-12------0-12------0-12------0-|
A|---2-------------------2------------------|
E|---3-------------------3------------------|


    S  S  S S S  S S  S  S S S  S  S   S  S   S  
e|----------------------------------------------|
B|-------12-0-----------12-0--------------------|
G|--------------12-------------12-(0)-11-(0)-12-|
D|--2-12------2----2-12------2------------------|
A|--3-----------10-3-----------10-(3)--9-(3)-10-|
E|--3--------------3----------------------------|


    S  S  S S S  S S  S  S S S  S  S   S  S   S  
e|----------------------------------------------|
B|-------12-0-----------12-0--------------------|
G|--------------12-------------12-(0)-11-(0)-12-|
D|--2-12------2----2-12------2------------------|
A|--3-----------10-3-----------10-(3)--9-(3)-10-|
E|--3--------------3----------------------------|


    S  S  S S S  S S  S  S S S  S  S   S  S   S  
e|----------------------------------------------|
B|-------12-0-----------12-0--------------------|
G|--------------12-------------12-(0)-11-(0)-12-|
D|--2-12------2----2-12------2------------------|
A|--3-----------10-3-----------10-(3)--9-(3)-10-|
E|--5--------------5----------------------------|


    S S  S S S  S  S S S  S  S S S  S  S S  
e|------12-0------14-0------15-0------15-0-|
B|-----------------------------------------|
G|----9--------11--------12--------12------|
D|--2--------2---------2---------2---------|
A|--3--------3---------3---------3---------|
E|--3--------3---------3---------3---------|


    S S S  S  S S S  S S S S  S  S S S  S  
e|------------------15-----------------14-|
B|-----------12-0---------------12-0------|
G|------4-----------12-----2-----------11-|
D|----5---12------5------4---12------4----|
A|--7------------------5------------------|
E|----------------------------------------|


    S S S  S  S S S  S  S   S  S   S  S   S  S  S  
e|------------------15-(0)--------15-(0)----------|
B|-----------12-0----------15-(0)--------12-13-12-|
G|------------------12-(0)--------12-(0)----------|
D|------5-12------5--------12-(5)-----------------|
A|----7-------------------------------------------|
E|--8---------------------------------------------|


    S S S  S  S S S  S S S S  S  S S S  S    S S E   Q    Q    Q     
e|-----------15-0---------------14-0------|-------------------------|
B|------------------12-----------------12-|---------12----8----0----|
G|------4-12------4--------2-11------2----|--------------------0----|
D|----5-------------12---4-------------12-|------5--12----9----5----|
A|--7------------------5------------------|----7--------------------|
E|----------------------------------------|--8----------------------|


    S S S  S  S S S  S S S S  S  S S S  S  
e|------------------15-----------------14-|
B|-----------12-0---------------12-0------|
G|------4-----------12-----2-----------11-|
D|----5---12------5------4---12------4----|
A|--7------------------5------------------|
E|----------------------------------------|


    S S S  S  S S S  S  S   S  S   S  S   S  S  S  
e|------------------15-(0)--------15-(0)----------|
B|-----------12-0----------15-(0)--------12-13-12-|
G|------------------12-(0)--------12-(0)----------|
D|------5-12------5--------12-(5)-----------------|
A|----7-------------------------------------------|
E|--8---------------------------------------------|


    S S S  S  S S S  S S S S  S  S S S  S  
e|-----------15-0---------------14-0------|
B|------------------12-----------------12-|
G|------4-12------4--------2-11------2----|
D|----5-------------12---4-------------12-|
A|--7------------------5------------------|
E|----------------------------------------|


    S S S  S  S S S  S S  S S  S S  S E   
e|----------------------------15-0-------|
B|-----------12-0--------12-0------15-0--|
G|------------------12-0-----------------|
D|------5-12------5----------------------|
A|----7----------------------------------|
E|--8------------------------------------|


     S  S S S  S  S S S  S  S S S  S  S S S  
e|------------------------------------------|
B|-----12-0------12-0------12-0------12-0---|
G|------------------------------------------|
D|--12------0-12------0-12------0-12------0-|
A|---7--------------------------------------|
E|---8--------------------------------------|


     S  S S S  S  S S S  S  S S S  S  S S S  
e|------------------------------------------|
B|-----12-0------12-0------12-0------12-0---|
G|------------------------------------------|
D|--12------0-12------0-12------0-12------0-|
A|---2--------------------------------------|
E|---3--------------------------------------|


     S  S S S  S  S S S  S  S S  S  S  S S S  
e|-------------------------------------------|
B|-----12-0------12-0------12-0-------12-0---|
G|-------------------------------------------|
D|--12------0-12------0-12-------0-12------0-|
A|---7------------------------------9--------|
E|---8--------------------------10-----------|


     S  S S S  S  S S S  S  S S S  S  S S S  
e|-----------------------3---------2------0-|
B|-----12-0------12-0------12-0------12-0---|
G|------------------------------------------|
D|--12------0-12------0-12------0-12------0-|
A|---2--------------------------------------|
E|---3--------------------------------------|


     S  S S S  S  S S S  S  S S  S  S  S S S  
e|-------------------------------------------|
B|-----12-0------12-0------12-0-------12-0---|
G|-------------------------------------------|
D|--12------0-12------0-12-------0-12------0-|
A|---7------------------------------9--------|
E|---8--------------------------10-----------|


     S  S S S  S  S S S  S  S S S  S  S S S  
e|-----------------------7---------0--------|
B|-----12-0------12-0------12-0------12-0---|
G|------------------------------------------|
D|--12------0-12------0-12------0-12------0-|
A|---2--------------------------------------|
E|---3--------------------------------------|


     S  S S S  S  S S S  S  S S  S  S  S S S  
e|-------------------------------------------|
B|-----12-0------12-0------12-0-------12-0---|
G|-------------------------------------------|
D|--12------0-12------0-12-------0-12------0-|
A|---7------------------------------9--------|
E|---8--------------------------10-----------|


     S  S S S  S  S S S  S  S S S  S  S S S    S S S S S S S S S S S S S S S S  
e|------------------------------------------|----------------------------------|
B|-----12-0------12-0------12-0------12-0---|----7-0-----7-0-----7-0-----7-0---|
G|------------------------------------------|----------------------------------|
D|--12------0-12------0-12------0-12------0-|--7-----0-7-----0-7-----0-7-----0-|
A|---2-------------------2------------------|--------------------------2-------|
E|---3-------------------3------------------|--3---------------5---------------|


    S S S S S S S S S S S S S S S S    S S S S S S S S S S S S S S S S  
e|----------------------------------|----------------------------------|
B|----5-0-----5-0-----5-0-----5-0---|----7-0-----7-0-----7-0-----7-0---|
G|----------------------------------|----------------------------------|
D|--5-----0-5-----0-4-----0-4-----0-|--7-----0-7-----0-7-----0-7-----0-|
A|--2---------------2---------------|--------------------------3---2---|
E|--3---------------3---------------|--3---------------5---------------|


    S S S S S S S S S S S S S S S S    S S S S S S S S S S S S S S S S  
e|----------------------------------|----------------------------------|
B|----5-0-----5-0-----5-0-----5-0---|----7-0-----7-0-----7-0-----7-0---|
G|----------------------------------|----------------------------------|
D|--5-----0-5-----0-4-----0-4-----0-|--7-----0-7-----0-7-----0-7-----0-|
A|--2---------------2---------------|--2-----------------------2-3-2-0-|
E|--3---------------3---------------|--3---------------5---------------|


    S S S S S S S S S S S S S S S S    S S S S S S S S S S S S S S S S  
e|----------------------------------|----------------------------------|
B|----5-0-----5-0-----5-0-----5-0---|----7-0-----7-0-----7-0-----7-0---|
G|----------------------------------|----------------------------------|
D|--5-----0-5-----0-4-----0-4-----0-|--7-----0-7-----0-7-----0-7-----0-|
A|--2---------------2---------------|--2-----------------------2-3-2-0-|
E|--3---------------3---------------|--3---------------5---------------|


    S S S S S S S S S S S S S S S S  
e|----------------------------------|
B|----5-0-----5-0-----5-0-----5-0---|
G|----------------------------------|
D|--5-----0-5-----0-4-----0-4-----0-|
A|--2---------------2---------------|
E|--3---------------3---------------|


    S  S  S S S  S S  S  S S S  S  S   S  S   S  
e|----------------------------------------------|
B|-------12-0-----------12-0--------------------|
G|--------------12-------------12-(0)-11-(0)-12-|
D|--2-12------2----2-12------2------------------|
A|--3-----------10-3-----------10-(3)--9-(3)-10-|
E|--3--------------3----------------------------|


    S  S  S S S  S S  S  S S S  S  S   S  S   S  
e|----------------------------------------------|
B|-------12-0-----------12-0--------------------|
G|--------------12-------------12-(0)-11-(0)-12-|
D|--2-12------2----2-12------2------------------|
A|--3-----------10-3-----------10-(3)--9-(3)-10-|
E|--3--------------3----------------------------|


    S  S  S S S  S S  S  S S S  S  S   S  S   S  
e|----------------------------------------------|
B|-------12-0-----------12-0--------------------|
G|--------------12-------------12-(0)-11-(0)-12-|
D|--2-12------2----2-12------2------------------|
A|--3-----------10-3-----------10-(3)--9-(3)-10-|
E|--5--------------5----------------------------|


    S S  S S S  S  S S S  S  S S S  S  S S  
e|------12-0------14-0------15-0------15-0-|
B|-----------------------------------------|
G|----9--------11--------12--------12------|
D|--2--------2---------2---------2---------|
A|--3--------3---------3---------3---------|
E|--3--------3---------3---------3---------|


    S S S  S  S S S  S S S S  S  S S S  S  
e|------------------15-----------------14-|
B|-----------12-0---------------12-0------|
G|------4-----------12-----2-----------11-|
D|----5---12------5------4---12------4----|
A|--7------------------5------------------|
E|----------------------------------------|


    S S S  S  S S S  S  S   S  S   S  S   S  S  S  
e|------------------15-(0)--------15-(0)----------|
B|-----------12-0----------15-(0)--------12-13-12-|
G|------------------12-(0)--------12-(0)----------|
D|------5-12------5--------12-(5)-----------------|
A|----7-------------------------------------------|
E|--8---------------------------------------------|


    S S S  S  S S S  S S S S  S  S S S  S    S S E   Q    Q    Q     
e|-----------15-0---------------14-0------|-------------------------|
B|------------------12-----------------12-|---------12----8----0----|
G|------4-12------4--------2-11------2----|--------------------0----|
D|----5-------------12---4-------------12-|------5--12----9----5----|
A|--7------------------5------------------|----7--------------------|
E|----------------------------------------|--8----------------------|


    S S S  S  S S S  S S S S  S  S S S  S  
e|------------------15-----------------14-|
B|-----------12-0---------------12-0------|
G|------4-----------12-----2-----------11-|
D|----5---12------5------4---12------4----|
A|--7------------------5------------------|
E|----------------------------------------|


    S S S  S  S S S  S  S   S  S   S  S   S  S  S  
e|------------------15-(0)--------15-(0)----------|
B|-----------12-0----------15-(0)--------12-13-12-|
G|------------------12-(0)--------12-(0)----------|
D|------5-12------5--------12-(5)-----------------|
A|----7-------------------------------------------|
E|--8---------------------------------------------|


    S S S  S  S S S  S S S S  S  S S S  S    S S S  S  S S E  H         
e|-----------15-0---------------14-0------|----------------------------|
B|------------------12-----------------12-|-----------12-0----8--------|
G|------4-12------4--------2-11------2----|----------------------------|
D|----5-------------12---4-------------12-|------5-12------5--9--------|
A|--7------------------5------------------|----7-----------------------|
E|----------------------------------------|--8-------------------------|  

 

************************************

| (n)  Ghost note 

************************************
Suggest correction
comments
print report bad tab
2 comments total.
+1 reply
Rich69 10 Oct 29, 2014 07:56 PM

awesome tab thanks!

0 reply
maxim.torba2 10 Jan 18, 2015 05:55 PM

cool cover on this song https://www.youtube.com/watch?v=70_Bmn3pEMU

guest
You may want to rate the tab now too:
select rating
Wanna post a correction for this tab? Suggest correction