Oops, an error
Loading. Please wait.

Gas Mask Catalogue tab

982 views 6 this week
no commentswrite comment
1 2 3 4 5
x 6
add to favorites
×
Save as Personal and add changes to this tab that will be seen only by you. Learn more ›
×
You can save this tab as Personal to edit and correct it or add notes. All changes will be seen only by you. Learn more »
launch autoscroll
font size
0
reset
how to read this tab
guitar tuner
edit
Autoscroll
slow
fast
+/-
esc
set tempo
stop
About this tab version
Rob Scallon's "Gas Mask Catalogue" Made for 6 string guitar. Was this info helpful? Yes No
This is the tab for Rob Scallon's "Gas Mask Catalogue"
I don't have a 9 string so I kinda figured it out in a 6 string tuned to Drop C#
I think I have both guitars well figured out, or at least I hope so
Had to replace the lower notes to open string hits on the C# of the 6th string

[Intro]
(0:00)

[Left Channel]

D# |----------------------------------------------------------| You bend the string as you 
A# |----------------------------------------------------------| gradually release the
F# |----------------------------------------------------------| palm mute
C# |----------------------------------------------------------|
G# |----------------------------------------------------------|
C# |--5-5-5-5-5-5-5-5-5-5-5-5--4-4-4-4-4-4-4-4-4-4-4-4-4------| x2
    PM.............-----------.....................--------

[Right Channel]

D# |----------------------------------------------------------|
A# |----------------------------------------------------------| 
F# |----------------------------------------------------------| 
C# |----------------------------------------------------------|
G# |--5~------------------------------------------------------|
C# |--5~------------------------------------------------------| x2
    ~ Let ring this chord 

[Post-Intro]
(?) (0:12)

[Left Channel]

D# |----------------------------------------------------------| The 5th and 4th fret notes 
A# |----------------------------------------------------------| are without PM, the open
F# |----------------------------------------------------------| string hits are palm muted
C# |----------------------------------------------------------|
G# |----------------------------------------------------------|
C# |--0-0-0-0-5-0-0-5-5-0-0-5-0-0-5-5-0-0-5-0-0-5-5-----------| 
    PM........-.....---.....-.....----....-.....--------------|

D# |----------------------------------------------------------|  
A# |----------------------------------------------------------| 
F# |----------------------------------------------------------| 
C# |----------------------------------------------------------|
G# |----------------------------------------------------------|
C# |--0-0-0-0-4-0-0-4-4-0-0-4-0-0-4-4-0-0-4-4-4b-4b-4b-4b-----| 
    PM........-.....---.....-.....----....-----------------  

D# |----------------------------------------------------------|  
A# |----------------------------------------------------------| 
F# |----------------------------------------------------------| 
C# |----------------------------------------------------------|
G# |----------------------------------------------------------|
C# |--0-0-0-0-5-0-0-5-5-0-0-5-0-0-5-5-0-0-5-0-0-5-5-----------| 
    PM........-.....---.....-.....----....-.....--------------|

D# |----------------------------------------------------------|  
A# |----------------------------------------------------------| 
F# |----------------------------------------------------------| 
C# |----------------------------------------------------------|
G# |----------------------------------------------------------|
C# |--0-0-0-0-5-0-0-5-0-0-4-5-1-0-----------------------------| X1
    PM........-.....-....----------------------------------  


[Right Channel]

D# |----------------------------------------------------------| All palm muted
A# |----------------------------------------------------------| 
F# |----------------------------------------------------------| 
C# |----------------------------------------------------------|
G# |--5-5-5-5-5-5-5-5-5-5-5-7-8-7-5-4-------------------------|
C# |--5-5-5-5-5-5-5-5-5-5-5-7-8-7-5-4-------------------------| 
    PM.....................................................

D# |----------------------------------------------------------| 
A# |----------------------------------------------------------| 
F# |----------------------------------------------------------| 
C# |----------------------------------------------------------|
G# |--4-4-4-4-4-4-4-4-4-4-4-4-4-5-4-5-------------------------|
C# |--4-4-4-4-4-4-4-4-4-4-4-4-4-5-4-5-------------------------| 
    PM.....................................................

D# |----------------------------------------------------------| 
A# |----------------------------------------------------------| 
F# |----------------------------------------------------------| 
C# |----------------------------------------------------------|
G# |--5-5-5-5-5-5-5-5-5-5-5-7-8-7-5-4-------------------------|
C# |--5-5-5-5-5-5-5-5-5-5-5-7-8-7-5-4-------------------------| 
    PM.....................................................

D# |----------------------------------------------------------|
A# |----------------------------------------------------------| 
F# |----------------------------------------------------------| 
C# |----------------------------------------------------------|
G# |--4-4-4-4-4-4-4-5-----------------------------------------|
C# |--4-4-4-4-4-4-4-5-1-0-------------------------------------| X1 
   PM............------------------------------------------

[Verse]
(0:24) 
 
[Left Channel]

D# |----------------------------------------------------------|   
A# |----------------------------------------------------------|
F# |----------------------------------------------------------|
C# |----------------------------------------------------------|
G# |----------------------------------------------------------|
C# |-5-5-5-5-7p5-5-5-8p5-5-5-5-5-7p5-5-5-8p5-5-5-5-5-10tr-8tr-| 
   PM........----....---.........----....---........----------
                                                      

D# |----------------------------------------------------------| 
A# |----------------------------------------------------------| 
F# |----------------------------------------------------------|
C# |----------------------------------------------------------|
G# |-------------------------------------------------4-5-4-5--|
C# |-4-4-4-4-5p4-4-4-7p4-4-4-4-4-5p4-4-4-7p4-4-4-4-4-4-5-4-5--|
   PM........----....---.........----....---...........-...-..

D# |----------------------------------------------------------|   
A# |----------------------------------------------------------|
F# |----------------------------------------------------------|
C# |----------------------------------------------------------|
G# |----------------------------------------------------------|
C# |-5-5-5-5-7p5-5-5-8p5-5-5-5-5-7p5-5-5-8p5-5-5-5-5-10tr-8tr-| 
   PM........----....---.........----....---........----------
                                                     

D# |----------------------------------------------------------| 
A# |----------------------------------------------------------| 
F# |----------------------------------------------------------|
C# |----------------------------------------------------------|
G# |----------------------------------------------------------|
C# |-4-4-4-4-5p4-4-4-7p4-4-4-4-5-1tr-0tr----------------------|
   PM........---.....---.....---------------------------------  Whole section x2

[Right Channel] 

D# |----------------------------------------------------------|   
A# |----------------------------------------------------------|
F# |----------------------------------------------------------|
C# |----------------------------------------------------------|
G# |----------------------------------------------------------|
C# |-5-5-5-5-7p5-5-5-8p5-5-5-5-5-7p5-5-5-8p5-5-5-5-5-10tr-8tr-| 
   PM........----....---.........----....---........----------

D# |----------------------------------------------------------| 
A# |----------------------------------------------------------| 
F# |----------------------------------------------------------|
C# |----------------------------------------------------------|
G# |-------------------------------------------------4-5-4-5--|
C# |-4-4-4-4-5p4-4-4-7p4-4-4-4-4-5p4-4-4-7p4-4-4-4-4-4-5-4-5--|
   PM........----....---.........----....---...........-...-..

D# |----------------------------------------------------------|   
A# |----------------------------------------------------------|
F# |----------------------------------------------------------|
C# |----------------------------------------------------------|
G# |----------------------------------------------------------|
C# |-5-5-5-5-7p5-5-5-8p5-5-5-5-5-7p5-5-5-8p5-5-5-5-5-10tr-8tr-| 
   PM........----....---.........----....---........----------
                                                     

D# |----------------------------------------------------------| 
A# |----------------------------------------------------------| 
F# |----------------------------------------------------------|
C# |----------------------------------------------------------|
G# |----------------------------------------------------------|
C# |-4-4-4-4-5p4-4-4-7p4-4-4-4-5-1tr-0tr----------------------|
   PM........---.....---.....---------------------------------  

D# |----------------------------------------------------------|   
A# |----------------------------------------------------------|
F# |----------------------------------------------------------|
C# |----------------------------------------------------------|
G# |----------------------------------------------------------|
C# |-5-5-5-5-7p5-5-5-8p5-5-5-5-5-7p5-5-5-8p5-5-5-5-5-13tr-12tr| 
   PM........----....---.........----....---........----------

D# |----------------------------------------------------------| 
A# |----------------------------------------------------------| 
F# |----------------------------------------------------------|
C# |----------------------------------------------------------|
G# |-------------------------------------------------4-5-4-5--|
C# |-4-4-4-4-5p4-4-4-7p4-4-4-4-4-5p4-4-4-7p4-4-4-4-4-4-5-4-5--|
   PM........----....---.........----....---...........-...-..

D# |----------------------------------------------------------|   
A# |----------------------------------------------------------|
F# |----------------------------------------------------------|
C# |----------------------------------------------------------|
G# |----------------------------------------------------------|
C# |-5-5-5-5-7p5-5-5-8p5-5-5-5-7-8-7-5-4-13tr-12tr------------| 
   PM........----....---.........-......----------------------

D# |----------------------------------------------------------| 
A# |----------------------------------------------------------| 
F# |----------------------------------------------------------|
C# |----------------------------------------------------------|
G# |----------------------------------------------------------|
C# |-4-4-4-4-5p4-4-4-7p4-4-4-4-5-1tr-0tr----------------------|
   PM........---.....---.....--------------------------------- 

[Verse 2]
(0:47)                                    

[Both Channels]

D# |----------------------------------------------------------------| 
A# |----------------------------------------------------------------| 
F# |----------------------------------------------------------------|
C# |----------------------------------------------------------------|
G# |----------------------------------------------------------------|
C# |-5tr-0tr-1tr-0tr-7tr-0tr-1tr-0tr-8tr-0tr-1tr-0tr-4tr-0tr-1tr-0tr|

D# |----------------------------------------------------------------| 
A# |----------------------------------------------------------------| 
F# |----------------------------------------------------------------|
C# |----------------------------------------------------------------|
G# |----------------------------------------------------------------|
C# |-5tr-0tr-1tr-0tr-7tr-0tr-1tr-0tr-8tr-0tr-1tr-0tr-4tr-0tr-1tr-0tr|

[Verse 3]
(1:00) 

[Both Channels]

D# |----------------------------------------------------------| This riff is a bit tricky, its just 
A# |----------------------------------------------------------| a 5tr alternated with some open string
F# |----------------------------------------------------------| hits
C# |----------------------------------------------------------|
G# |----------------------------------------------------------|
C# |--5tr-0-0-0-5tr-0-5tr-0-0-0-5tr-0-------------------------|
    PM----..-...---...---...-...---...........................

D# |----------------------------------------------------------| Same deal but in the 4th fret 
A# |----------------------------------------------------------| 
F# |----------------------------------------------------------| 
C# |----------------------------------------------------------|
G# |----------------------------------------------------------|
C# |--4tr-0-0-0-4tr-0-4tr-0-0-0-4tr-0-4tr-5tr-4tr-------------|
    PM----..-...---...---...-...---...------------------------

D# |----------------------------------------------------------| That last '0' is played on the lower 
A# |----------------------------------------------------------| string but I don't have a 9 string lol
F# |----------------------------------------------------------|
C# |----------------------------------------------------------|
G# |----------------------------------------------------------|
C# |--5tr-0-0-0-5tr-0-5tr-0-0-0-5tr-0~------------------------|
    PM----..-...---...---...-...----~~~~

D# |----------------------------------------------------------| 
A# |----------------------------------------------------------| 
F# |----------------------------------------------------------| 
C# |----------------------------------------------------------|
G# |----------------------------------5---4-------------------|
C# |--4tr-0-0-0-4tr-0-4tr-0-0-0-4tr-0-5-0-4-------------------|
    PM----..-...---...---...-...---...-...-------

D# |----------------------------------------------------------|  
A# |----------------------------------------------------------| 
F# |----------------------------------------------------------| 
C# |----------------------------------------------------------|
G# |----------------------------------------------------------|
C# |--5tr-0-0-0-5tr-0-5tr-0-0-0-5tr-0-------------------------|
    PM----..-...---...---...-...---...........................

D# |----------------------------------------------------------|  
A# |----------------------------------------------------------| 
F# |----------------------------------------------------------| 
C# |----------------------------------------------------------|
G# |----------------------------------------------------------|
C# |--4tr-0-0-0-4tr-0-4tr-0-0-0-4tr-0-4tr-5tr-4tr-------------|
    PM----..-...---...---...-...---...------------------------

D# |----------------------------------------------------------|  
A# |----------------------------------------------------------| 
F# |----------------------------------------------------------|
C# |----------------------------------------------------------|
G# |----------------------------------------------------------|
C# |--5tr-0-0-0-5tr-0-5tr-0-0-0-5tr-0~------------------------|
    PM----..-...---...---...-...----~~~~

D# |----------------------------------------------------------| About the last chords I'm not 100% sure
A# |----------------------------------------------------------| but they sound pretty close
F# |----------------------------------------------------------| 
C# |-----------------------------------4--5-------------------| 
G# |-----------------------------------6--7-------------------|
C# |--4tr-0-0-0-4tr-0-4tr-0-0-0-4tr-0--4--5-------------------|
    PM----..-...---...---...-...---...------------------------

[Verse]
(1:24)

[Left Channel]

D# |----------------------------------------------------------|   
A# |----------------------------------------------------------|
F# |----------------------------------------------------------|
C# |----------------------------------------------------------|
G# |----------------------------------------------------------|
C# |-5-5-5-5-7p5-5-5-8p5-5-5-5-5-7p5-5-5-8p5-5-5-5-5-10tr-8tr-| 
   PM........----....---.........----....---........----------
                                                      
D# |----------------------------------------------------------| 
A# |----------------------------------------------------------| 
F# |----------------------------------------------------------|
C# |----------------------------------------------------------|
G# |-------------------------------------------------4-5-4-5--|
C# |-4-4-4-4-5p4-4-4-7p4-4-4-4-4-5p4-4-4-7p4-4-4-4-4-4-5-4-5--|
   PM........----....---.........----....---...........-...-..

D# |----------------------------------------------------------|   
A# |----------------------------------------------------------|
F# |----------------------------------------------------------|
C# |----------------------------------------------------------|
G# |----------------------------------------------------------|
C# |-5-5-5-5-7p5-5-5-8p5-5-5-5-7-8-7-5-4-10tr-8tr-------------| 
   PM........----....---.........-......----------------------


D# |----------------------------------------------------------| 
A# |----------------------------------------------------------| 
F# |----------------------------------------------------------|
C# |----------------------------------------------------------|
G# |---------------------------4---------------------------5--|
C# |-4-4-4-4-5p4-4-4-7p4-4-4-0-4-4-4-4-4-5p4-4-4-7p4-4-4-0-5--|
   PM........---.....---.......-.........---.....---.......---

[Right Channel]

D# |----------------------------------------------------------|   
A# |----------------------------------------------------------|
F# |----------------------------------------------------------|
C# |----------------------------------------------------------|
G# |----------------------------------------------------------|
C# |-5-5-5-5-7p5-5-5-8p5-5-5-5-5-7p5-5-5-8p5-5-5-5-5-10tr-8tr-| 
   PM........----....---.........----....---........----------
                                                      
D# |----------------------------------------------------------| 
A# |----------------------------------------------------------| 
F# |----------------------------------------------------------|
C# |----------------------------------------------------------|
G# |-------------------------------------------------4-5-4-5--|
C# |-4-4-4-4-5p4-4-4-7p4-4-4-4-4-5p4-4-4-7p4-4-4-4-4-4-5-4-5--|
   PM........----....---.........----....---...........-...-..

D# |----------------------------------------------------------|   
A# |----------------------------------------------------------|
F# |----------------------------------------------------------|
C# |----------------------------------------------------------|
G# |----------------------------------------------------------|
C# |-5-5-5-5-7p5-5-5-8p5-5-5-5-5-7p5-5-5-8p5-5-5-5-5-1tr-0tr-| 
   PM........----....---.........----....---........----------

D# |----------------------------------------------------------| 
A# |----------------------------------------------------------| 
F# |----------------------------------------------------------|
C# |----------------------------------------------------------|
G# |---------------------------4---------------------------5--|
C# |-4-4-4-4-5p4-4-4-7p4-4-4-0-4-4-4-4-4-5p4-4-4-7p4-4-4-0-5--|
   PM........---.....---.......-.........---.....---.......---

[Verse 2 Variation]
(1:35)

[Both Channels]

D# |----------------------------------------------------------| 
A# |----------------------------------------------------------| 
F# |----------------------------------------------------------|
C# |----------------------------------------------------------|
G# |----------------------------------------------------------|
C# |-5tr-0tr-1tr-0tr-7tr-0-1-2-0------------------------------|
   PM--------------------...----------------------------------|


D# |----------------------------------------------------------| Same tricky riff
A# |----------------------------------------------------------|
F# |----------------------------------------------------------| 
C# |----------------------------------------------------------|
G# |----------------------------------------------------------|
C# |--5tr-0-0-0-5tr-0-5tr-0-0-0-5tr-0-------------------------|
    PM----..-...---...---...-...---...........................

D# |----------------------------------------------------------| 
A# |----------------------------------------------------------| 
F# |----------------------------------------------------------| 
C# |----------------------------------------------------------|
G# |----------------------------------------------------------|
C# |--4tr-0-0-0-4tr-0-4tr-0-0-0-4tr-0-4tr-5tr-4tr-------------|
    PM----..-...---...---...-...---...------------------------ 

D# |----------------------------------------------------------| You slide up to that 12 and then slide 
A# |----------------------------------------------------------| down to the 5th fret
F# |----------------------------------------------------------| 
C# |----------------------------------------------------------|
G# |----------------------------------------------------------|
C# |--5tr-0-0-0-5tr-0-5tr-0-0-0-5tr-0-s12s--------------------|
    PM----..-...---...---...-...---...........................

D# |----------------------------------------------------------| 
A# |----------------------------------------------------------| 
F# |----------------------------------------------------------| 
C# |----------------------------------------------------------|
G# |----------------------------------0---5---4---------------|
C# |--4tr-0-0-0-4tr-0-4tr-0-0-0-4tr-0-0-0-5-0-4---------------|
    PM----..-...---...---...-...---...--.---.----------------- 


D# |----------------------------------------------------------| You bend as you tremolo pick
A# |----------------------------------------------------------|
F# |----------------------------------------------------------| 
C# |----------------------------------------------------------|
G# |----------------------------------------------------------|
C# |--5tr-0-0-0-5tr-0-5tr-0-0-0-5trb--------------------------|
    PM----..-...---...---...-...---...........................


D# |----------------------------------------------------------|  
A# |----------------------------------------------------------| 
F# |----------------------------------------------------------| 
C# |----------------------------------------------------------|
G# |----------------------------------------------------------|
C# |--4tr-0-0-0-4tr-0-4tr-0-0-0-4tr-0-4-0-4-------------------|
    PM----..-...---...---...-...---...-...-...................

D# |----------------------------------------------------------| 
A# |----------------------------------------------------------| 
F# |----------------------------------------------------------| 
C# |----------------------------------------------------------|
G# |--------------------------------0-------------------------|
C# |--5tr-0-0-0-5tr-0-5tr-0-0-0-5tr-0-------------------------|
    PM----..-...---...---...-...---...........................


D# |----------------------------------------------------------|  
A# |----------------------------------------------------------| 
F# |----------------------------------------------------------| 
C# |----------------------------------------------------------|
G# |------------------------1-0-------------------------------|
C# |--4tr-0-0-0-4tr-0-4tr-0-1-0-------------------------------|
    PM----..-...---...---...----------------------------------

[Pre-Solo]
(2:02)

[I haven't figured out the chords of the left channel]

[Right Channel]

D# |----------------------------------------------------------|  
A# |----------------------------------------------------------| 
F# |----------------------------------------------------------| 
C# |----------------------------------------------------------|
G# |--5-0-1-0-7-0-1-0-8-0-1-0-4-0-1-0-------------------------|
C# |--5-0-1-0-7-0-1-0-8-0-1-0-4-0-1-0-------------------------| x2
   PM--.......-.......-.......-...............................

[Rythm for solo]
(2:14)

D# |----------------------------------------------------------|  
A# |----------------------------------------------------------| 
F# |----------------------------------------------------------| 
C# |----------------------------------------------------------|
G# |--5-5-5-5-5-5-5-5-5-5-5-5---------------------------------|
C# |--5-5-5-5-5-5-5-5-5-5-5-5---------------------------------|
  PM---.....-.....-.....-.....................................

D# |----------------------------------------------------------|  
A# |----------------------------------------------------------| 
F# |----------------------------------------------------------| 
C# |----------------------------------------------------------|
G# |--5-5-5-5-5-5-5-5-5-5-5-5---------------------------------|
C# |--4-4-4-4-4-4-4-4-4-4-4-4---------------------------------| Whole Section x4
  PM---.....-.....-.....-.....................................  

D# |----------------------------------------------------------| 
A# |----------------------------------------------------------| 
F# |----------------------------------------------------------| 
C# |----------------------------------------------------------|
G# |--5-5-5-5-5-5-5-5-5-5-5-7-8-7-5-4-------------------------|
C# |--5-5-5-5-5-5-5-5-5-5-5-7-8-7-5-4-------------------------| 
    PM.....................................................

D# |----------------------------------------------------------| 
A# |----------------------------------------------------------| 
F# |----------------------------------------------------------| 
C# |----------------------------------------------------------|
G# |--4-4-4-4-4-4-4-4-4-4-4-4-4-5-4-5-------------------------|
C# |--4-4-4-4-4-4-4-4-4-4-4-4-4-5-4-5-------------------------| 
    PM.....................................................

D# |----------------------------------------------------------| 
A# |----------------------------------------------------------| 
F# |----------------------------------------------------------| 
C# |----------------------------------------------------------|
G# |--5-5-5-5-5-5-5-5-5-5-5-7-8-7-5-4-------------------------|
C# |--5-5-5-5-5-5-5-5-5-5-5-7-8-7-5-4-------------------------| 
    PM.....................................................

D# |----------------------------------------------------------|
A# |----------------------------------------------------------| 
F# |----------------------------------------------------------| 
C# |----------------------------------------------------------|
G# |--4-4-4-4-4-4-4-5-----------------------------------------|
C# |--4-4-4-4-4-4-4-5-1-0-------------------------------------| X1 
   PM............---------------------------------------------

[Verse]
(2:51) (From here it's all left channel)

D# |----------------------------------------------------------|   
A# |----------------------------------------------------------|
F# |----------------------------------------------------------|
C# |----------------------------------------------------------|
G# |----------------------------------------------------------|
C# |-5-5-5-5-7p5-5-5-8p5-5-5-5-5-7p5-5-5-8p5-5-5-5-5-10tr-8tr-| 
   PM........----....---.........----....---........----------
                                                      

D# |----------------------------------------------------------| 
A# |----------------------------------------------------------| 
F# |----------------------------------------------------------|
C# |----------------------------------------------------------|
G# |-------------------------------------------------4-5-4-5--|
C# |-4-4-4-4-5p4-4-4-7p4-4-4-4-4-5p4-4-4-7p4-4-4-4-4-4-5-4-5--|
   PM........----....---.........----....---...........-...-..

D# |----------------------------------------------------------|   
A# |----------------------------------------------------------|
F# |----------------------------------------------------------|
C# |----------------------------------------------------------|
G# |----------------------------------------------------------|
C# |-0-5-8-0-7-0-5-8-0-7-0-5-8-0-7----------------------------| 
   PM....-...-.....-...-.....-...-............................

D# |----------------------------------------------------------|   
A# |----------------------------------------------------------|
F# |----------------------------------------------------------|
C# |----------------------------------------------------------|
G# |----------------------------------------------------------|
C# |-0-4-7-0-5-0-4-7-1-0~-------------------------------------| 
   PM....-...-.....-------------------------------------------                                           

           
D# |----------------------------------------------------------|  
A# |----------------------------------------------------------| 
F# |----------------------------------------------------------| 
C# |----------------------------------------------------------|
G# |--5-0-1-0-7-0-1-0-8-0-1-0-4-0-1-0-------------------------|
C# |--5-0-1-0-7-0-1-0-8-0-1-0-4-0-1-0-------------------------| x3
   PM--.......-.......-.......-...............................

D# |----------------------------------------------------------| You hit that last chord and you
A# |----------------------------------------------------------| quickly mute the strings
F# |----------------------------------------------------------| 
C# |----------------------------------------------------------|
G# |--5-0-1-0-7-0-1-0-8-0-1-0-4-0-1-0-5-----------------------|
C# |--5-0-1-0-7-0-1-0-8-0-1-0-4-0-1-0-5-----------------------| 
   PM--.......-.......-.......-.......------------------------



************************************

| PM  Palm mute
| ~   Vibrato
| b   Bend
| p   Pull-off
 
************************************

            
            
Suggest correction
Creating personal tab
Creating personal tab
You can edit any tab online and save it as your Personal.

You can edit, replace or remove any tab part or add personal notes – all changes will be seen only by you.

Personal tabs can be accessed anytime from any device, even offline.
Learn more »
comments
print report bad tab
guest
You may want to rate the tab now too:
select rating
Wanna post a correction for this tab? Suggest correction