Oops, an error
Loading. Please wait.

Most Brutal Breakdown tab

151 views 24 this week
no commentswrite comment
1 2 3 4 5
3 more votes to show rating
add to favorites
×
Save as Personal and add changes to this tab that will be seen only by you. Learn more ›
×
You can save this tab as Personal to edit and correct it or add notes. All changes will be seen only by you. Learn more »
launch autoscroll
font size
0
reset
how to read this tab
guitar tuner
edit
Autoscroll
slow
fast
+/-
esc
set tempo
stop
Author
Difficulty
About this tab version
This tab is straight from what Rob Scallon explains in his tutorial video on how to play this song. Was this info helpful? Yes No
The Most Brutal Deathcore Breakdown by Rob Scallon
This is played on an 8 string in standard tuning, but can really be played on any number of strings

E |-----------<4>----------------------------|
B |------------<4>---------------------------|
G |-------------<4>--------------------------|
D |--------------<4>-------------------------|  x 3
A |--2--5--4------<4>---------5--4-----------|
E |--2--5--4-------<4>---6-7--5--4--*2*------|
B |--0--3--2--------<4>--6-7--3--2-----------|
F#|------------------<4>-4-5-------0-----0---|


                            
E |-----------<4>-------------------------------------|
B |------------<4>------------------------------------|
G |-------------<4>-----------------------------------|
D |--------------<4>----------------------------------|
A |--2--5--4------<4>---------------------------------|
E |--2--5--4-------<4>---6-7--------------------------|
B |--0--3--2--------<4>--6-7---------2---2---2---2----|
F#|------------------<4>-4-5-----1/\-1---1---1---1----|
                
                            ^^^ Take this part as slow as you like (7 Beats per Week for full Brutal Effect)


-<4>: Natural Harmonics
-*2*: Pinch Harmonics
-1/\: Bend Sharp, then back down

            
            
Suggest correction
Creating personal tab
Creating personal tab
You can edit any tab online and save it as your Personal.

You can edit, replace or remove any tab part or add personal notes – all changes will be seen only by you.

Personal tabs can be accessed anytime from any device, even offline.
Learn more »
Give kudos to tab author, rate the tab!
1 2 3 4 5
comments
print report bad tab
guest
You may want to rate the tab now too:
select rating
Wanna post a correction for this tab? Suggest correction