Oops, an error
Loading. Please wait.

Ragtime 2016 Bass Tab

version 1
version 1

Whole song

  • 2016 version of the song.

Interactive

625 views 6 this week
no commentswrite comment
1 2 3 4 5
x 3
add to favorites
launch autoscroll
font size
0
reset
guitar tuner
Autoscroll
slow
fast
+/-
esc
set tempo
stop
Help us to improve Ultimate-Guitar.com Take our survey!
×
Author
About this tab version
2016 version of the song. Was this info helpful? Yes No
Tempo = 73
Electric Bass

Legend
L - tied note
x - dead note
h - hammer on/pull off
b - bend
s - slide
~ - vibrato
g - ghost note
> - accentuated note
t - trill
M - palm mute
. - staccato
P - popping (bass)
S - slapping (bass)
+ - tapping
W - wide vibrato
< - fade in
w - whammy bar
= - tremolo picking
v - brush up
^ - brush down
V - pick stroke up
n - pick stroke down

                                                                          
G |----|----------------------------|----------------------------|-------|
D |----|--0L----------------0--7----|--8--------7--------5s------|--3----|
A |----|----------------------------|----------------------------|-------|
E |----|----------------------------|----------------------------|-------|

                                                                          
-------|----------------------------|----------------------------|-------|
--3----|--0L----------------0--7----|--8--------7--------5s------|--3----|
-------|----------------------------|----------------------------|-------|
-------|----------------------------|----------------------------|-------|

                                                             
-------|----------------------------------------------------|
--3----|--0--0--0-----------0--0--0-----------0--0----------|
-------|----------------------------------------------------|
-------|----------------------------------------------------|

                                                     
----------------------------------------------------|
--0--0--0-----------0--0--0-----------0--3--3--3----|
----------------------------------------------------|
----------------------------------------------------|

                                                     
----------------------------------------------------|
----------------------------------------------------|
--3--3--3-----------3--3--3-----------3--3----------|
----------------------------------------------------|

                                                     
--------------------------2-------------------------|
--------------------------------------3-------------|
--3--3--3-----------3--3----------------------------|
----------------------------------------------------|

                                                     
----------------------------------------------------|
--0--0--0-----------0--0--0-----------0--0----------|
----------------------------------------------------|
----------------------------------------------------|

                                                     
----------------------------------------------------|
--0--0--0-----------0--0--0-----------0--3--3--3----|
----------------------------------------------------|
----------------------------------------------------|

                                                     
----------------------------------------------------|
--------------3-----------------3-------------------|
--3--3--3-----------3--3--3-----------3--3----------|
----------------------------------------------------|

                                                     
--------------------------2-------------------------|
--------------3--------------3--3--3--3-------------|
--3--3--3-----------3--3-----------------3--3--3----|
----------------------------------------------------|

                             
----------------------------|
----------------------------|
--1-----0--0L----------0----|
----------------------------|

                                                     
----------------------------------------------------|
----------------------------------------------------|
--5-----5--5--5--0--3L----------------------3-------|
----------------------------------------------------|

                             
----------------------------|
----------------------------|
--1-----0--0L----------0----|
----------------------------|

                                                     
----------------------------------------------------|
-----------------3--3L----------------------3-------|
--5-----5--5--5-------------------------------------|
----------------------------------------------------|

                                                     
----------------------------------------------------|
----------------------------------------------------|
--1--1-----1--1-----1-----1--1-----1--1-------------|
----------------------------------------------------|

                                                     
----------------------------------------------------|
----------------------------------------------------|
--0--0-----0--0-----0-----0--0-----0--0-------------|
----------------------------------------------------|

                                                     
----------------------------------------------------|
----------------------------------------------------|
--1--1-----1--1-----1-----1--1-----1--1-------------|
----------------------------------------------------|

                                                       =       =       =     
----------------------------------------------------|-------|-------|-------|
----------------------------------------------------|-------|-------|-------|
--0--0-----0--0-----0-----0--0-----0--0-------------|--1----|--0----|--1----|
----------------------------------------------------|-------|-------|-------|

  =       =  =       =  =       =       =     
-------|----------|----------|-------|-------|
-------|----------|----------|-------|-------|
--0----|--5--4----|--3--2----|--1----|--0----|
-------|----------|----------|-------|-------|

                                                     
----------------------------------------------------|
--0--0--0-----------0--0--0-----------0--0----------|
----------------------------------------------------|
----------------------------------------------------|

                                                     
----------------------------------------------------|
--0--0--0-----------0--0--0-----------0--3--3--3----|
----------------------------------------------------|
----------------------------------------------------|

                                                     
----------------------------------------------------|
----------------------------------------------------|
--3--3--3-----------3--3--3-----------3--3----------|
----------------------------------------------------|

                                                     
--------------------------2-------------------------|
--------------------------------------3-------------|
--3--3--3-----------3--3----------------------------|
----------------------------------------------------|

                                                     
----------------------------------------------------|
--0--0--0-----3-----0--0--0-----3-----0--0----------|
----------------------------------------------------|
----------------------------------------------------|

                                                     
----------------------------------------------------|
--0--0--0-----3-----0--0--0-----3-----0--3--3--3----|
----------------------------------------------------|
----------------------------------------------------|

                                                     
----------------------------------------------------|
--------------3-----------------3-------------------|
--3--3--3-----------3--3--3-----------3--3----------|
----------------------------------------------------|

                                                     
--------------------------2-------------------------|
--------------3--------------3--3--3--3-------------|
--3--3--3-----------3--3-----------------3--3--3----|
----------------------------------------------------|

                             
----------------------------|
----------------------------|
--1-----0--0L----------0----|
----------------------------|

                                                     
----------------------------------------------------|
----------------------------------------------------|
--5-----5--5--5--0--3L----------------------3-------|
----------------------------------------------------|

                             
----------------------------|
----------------------------|
--1-----0--0L----------0----|
----------------------------|

                                                     
----------------------------------------------------|
-----------------3--3L----------------------3-------|
--5-----5--5--5-------------------------------------|
----------------------------------------------------|

                                                     
----------------------------------------------------|
----------------------------------------------------|
--1--1-----1--1-----1-----1--1-----1--1-------------|
----------------------------------------------------|

                                                     
----------------------------------------------------|
----------------------------------------------------|
--0--0-----0--0-----0-----0--0-----0--0-------------|
----------------------------------------------------|

                                                     
----------------------------------------------------|
----------------------------------------------------|
--1--1-----1--1-----1-----1--1-----1--1-------------|
----------------------------------------------------|

                                                       =       =       =     
----------------------------------------------------|-------|-------|-------|
----------------------------------------------------|-------|-------|-------|
--0--0-----0--0-----0-----0--0-----0--0-------------|--1----|--0----|--1----|
----------------------------------------------------|-------|-------|-------|

  =       =  =       =  =       =       =       =  =       =  =       =     
-------|----------|----------|-------|-------|----------|----------|-------|
-------|----------|----------|-------|-------|----------|----------|-------|
--0----|--5--4----|--3--2----|--1----|--0----|--5--4----|--3--2----|--1----|
-------|----------|----------|-------|-------|----------|----------|-------|

  =       =
-------|-------|----------------------------|----------------------------|
-------|-------|--0L----------------0--7----|--8--------7--------5s------|
--0----|--0----|----------------------------|----------------------------|
-------|-------|----------------------------|----------------------------|


----------------------------------------------------|
--3L----------------------3-----3-------------------|
--------------------------------------3--3----------|
----------------------------------------------------|


----------------------------------------------------|
--------------3-----------------3-------------------|
--3--3--3-----------3--3--3-----------3--3----------|
----------------------------------------------------|


----------------------------|----------------------------|
-----------3-----------7----|--8--------7--------5-------|
--1-------------------------|----------------------------|
----------------------------|----------------------------|


----------------------------------------------------|
--7-----------------------------7-------------------|
--------------------8-----------------8--8----------|
----------------------------------------------------|


----------------------------------------------------|
--------------7-----------------7-------------------|
--8--8--8-----------8--8--8-----------8--8--1-------|
----------------------------------------------------|


----------------------------------------------------|
--------------3-----------------3-------------------|
--1--1--1-----------1--1--1-----------1--1----------|
----------------------------------------------------|


----------------------------------------------------|
--------------3-----------------3-------------------|
--1--1--1-----------1--1--1-----------1--1----------|
----------------------------------------------------|


----------------------------------------------------|
--------------3-----------------3-------------------|
--1--1--1-----------1--1--1-----------1--1----------|
----------------------------------------------------|


----------------------------------------------------|--2L---|--2----|
--------------3-----------------3L------------------|--3L---|--3----|
--1--1--1-----------1--1--1-------------------------|-------|-------|
----------------------------------------------------|-------|-------|


--2-------------------------|----||
--3-------------------------|----||
----------------------------|----||
----------------------------|----||
Suggest correction
Give kudos to tab author, rate the tab!
1 2 3 4 5
comments
print report bad tab
guest
You may want to rate the tab now too:
select rating
Wanna post a correction for this tab? Suggest correction