Oops, an error
Loading. Please wait.

17 Year Locust tab

version 1
version 1

Whole song

Interactive

1,966 views 3 this week
1 commentread comment
1 2 3 4 5
2 more votes to show rating
add to favorites
×
Save as Personal and add changes to this tab that will be seen only by you. Learn more ›
×
You can save this tab as Personal to edit and correct it or add notes. All changes will be seen only by you. Learn more »
launch autoscroll
font size
0
reset
how to read this tab
guitar tuner
edit
Autoscroll
slow
fast
+/-
esc
set tempo
stop
Author
Song: 17 Year Locust
Band: Rob Zombie
Tabbed by: unspeakable.elvis@gmail.com

Tuning: 1 1/2 steps down (Low to high: C# F# B E G# c#)

Listen to the song for the structure.

"Sitar" Intro bit:
|-----------------------------|-----------------------------------|
|---------------11---10~------|---------------11---10-----8-9-8~--|
|-----9-7-9-7-9---------------|-9---9-7-9-7-9-----------9---------|
|-----------------------------|-----------------------------------|
|-----------------------------|-----------------------------------|
|-0---------------------------|-0---------------------------------|

Chorus riff
|---------------------------------------|
|---------------------------------------|
|---------------------------------------|
|-2---5-2-4-2------8---7------2-5-6-5---|
|-2---5-2-4-2------8---7------2-5-6-5---|
|-0---3-0-2-0------6---5------0-3-4-3---|

Lead over 1st Chorus Riff (played twice):
|-----------------------/17---/16~~~-----|
|-/17~~~-17-17-17-17\--------------------|
|----------------------------------------|
|----------------------------------------|
|----------------------------------------|
|----------------------------------------|

|-----------------------/15---/14~~~-----|
|-/17~~~-17-17-17-17\----------------/18-|
|----------------------------------------|
|----------------------------------------|
|----------------------------------------|
|----------------------------------------|


"Sitar" doodle (appears twice in the song)
|----12-13-16-13-12----13-12--------12---------------------|
|---x---------------14-------14-13-----14-13-10h12h13-10-9-|
|--x-------------------------------------------------------|
|-x--------------------------------------------------------|
|----------------------------------------------------------|
|----------------------------------------------------------|

  Tremolo picking:
|------------------------------------------------------|
|-8---6---8---6-------6--------------------------------|
|-----------------9-------9---7---9---7--6--7---9~~~~--| back to "Sitar" Intro
|------------------------------------------------------|
|------------------------------------------------------|
|------------------------------------------------------|


After the chorus the "Sitar" intro is repeated a lot, with small variations, such as:

|------------------------------------|
|------------------11---10-----8-9-8-|
|-9-9h10p9p7-9-7-9-----------9-------|
|------------------------------------|
|------------------------------------|
|------------------------------------|

|------------------------------------|
|-----------------/11---10-----8-9-8-|
|-9h10p9p7-7-9-7-9-----------9-------|
|------------------------------------|
|------------------------------------|
|------------------------------------|

And so forth until the end.

            
            
Suggest correction
Creating personal tab
Creating personal tab
You can edit any tab online and save it as your Personal.

You can edit, replace or remove any tab part or add personal notes – all changes will be seen only by you.

Personal tabs can be accessed anytime from any device, even offline.
Learn more »
Give kudos to tab author, rate the tab!
1 2 3 4 5
comments
print report bad tab
1 comment total.
0 reply
coolbro1539 10 May 30, 2013 01:45 AM

Good tab, but i think tuning must be a Drop B, coz play "chorus riff" much easier

guest
You may want to rate the tab now too:
select rating
Wanna post a correction for this tab? Suggest correction