Oops, an error
Loading. Please wait.

American Witch tab

version 1
version 1

Whole song

Interactive

10,657 views 3 this week
5 commentsread comments
1 2 3 4 5
x 5
add to favorites
×
Save as Personal and add changes to this tab that will be seen only by you. Learn more ›
×
You can save this tab as Personal to edit and correct it or add notes. All changes will be seen only by you. Learn more »
launch autoscroll
font size
0
reset
how to read this tab
guitar tuner
edit
Autoscroll
slow
fast
+/-
esc
set tempo
stop
Difficulty
intermediate
Song:American Witch
Artist:Rob Zombie
Album:Educated Horses

Tabbed By:Patrick Morgan
6-22-06





Intro/Main Riff X 4
Guitar 2

E---------------------------------------------------------------------------|
B---------------------------------------------------------------------------|
G---------------------------------------------------------------------------|
D---------------------------------------------------------------------------|
A---------------3-2---------3-2-3/5-------------3-2-------------3-2-0-------|
E---00-000-000-------00-000----------00-000-000-----00-000-000--------------|
    xx xxx xxx       xx xxx          xx xxx xxx     xx xxx xxx
Guitar 1 Comes In With This With Wah
E-------------------------------------------------------------------------------------|
B---12-12-12-12-12-12-12-12-12-12-12-12--15--12-12-12-12-12-12-12-12-12-12-12-12--10--|
G-------------------------------------------------------------------------------------|
D-------------------------------------------------------------------------------------|
A-------------------------------------------------------------------------------------|
E-------------------------------------------------------------------------------------|

Both Guitars X 2
E-------------------------------------------------------------------------------|
B-------------------------------------------------------------------------------|
G-------------------------------------------------------------------------------|
D-------------------------------------------------------------------------------|
A---------------3-2---------3-2-3/5-------------3-2------------3-2-0------------|
E---00-000-000-------00-000----------00-000-000-----00-000-000------------------|
    xx xxx xxx       xx xxx          xx xxx xxx     xx xxx xxx
Both Guitars X 2
E-----------------------------------------------------------------------------------------------------|
B-----------------------------------------------------------------------------------------------------|
G-----------------------------------------------------------------------------------------------------|
D-----------------------------------------------------------------------------------------------------|
A-----------------------3-2/5-------------------3-2-------------------3-2/5---------------------3-2-0-|
E---00-000-000-000-000-------00-000-000-000-000-----00-000-000-000-000------00-000-000-000-000--------|
    xx xxx xxx xxx xxx       xx xxx xxx xxx xxx     xx xxx xxx xxx xxx      xx xxx xxx xxx xxx 
Both Guitars X 4
E--------------------------------------------------------------------------------|
B--------------------------------------------------------------------------------|
G--------------------------------------------------------------------------------|
D--------------------------------------------------------------------------------|
A---------------3-2---------3-2-3/5-------------3-2------------3-2-0-------------|
E---00-000-000-------00-000----------00-000-000-----00-000-000-------------------|
    xx xxx xxx       xx xxx          xx xxx xxx     xx xxx xxx
Both Guitars X 2
E-----------------------------------------------------------------------------------------------------|
B-----------------------------------------------------------------------------------------------------|
G-----------------------------------------------------------------------------------------------------|
D-----------------------------------------------------------------------------------------------------|
A-----------------------3-2/5-------------------3-2-------------------3-2/5---------------------3-2-0-|
E---00-000-000-000-000-------00-000-000-000-000-----00-000-000-000-000------00-000-000-000-000--------|
    xx xxx xxx xxx xxx       xx xxx xxx xxx xxx     xx xxx xxx xxx xxx      xx xxx xxx xxx xxx 
Guitar 1 Alone X 2 But Continues With Guitar 2 To Next Verse
E------------------------------------------------------------------------------|
B------------------------------------------------------------------------------|
G------------------------------------------------------------------------------|
D------------------------------------------------------------------------------|
A------------------------------------------------------------------------------|
E---0-2-3--0-3-5--0-5-7--0-7-9--0-7-10-----------------------------------------|

Both Guitars X 2
E-----------------------------------------------------------------------------------------------------|
B-----------------------------------------------------------------------------------------------------|
G-----------------------------------------------------------------------------------------------------|
D-----------------------------------------------------------------------------------------------------|
A-----------------------3-2/5-------------------3-2-------------------3-2/5---------------------3-2-0-|
E---00-000-000-000-000-------00-000-000-000-000-----00-000-000-000-000------00-000-000-000-000--------|
    xx xxx xxx xxx xxx       xx xxx xxx xxx xxx     xx xxx xxx xxx xxx      xx xxx xxx xxx xxx 
Guitar 1
E---2----3-----2----3-------2----3-----|
B-----6----------6------------6--------|
G--------------------------------------|
D--------------------------------------|
A--------------------------------------|
E--------------------------------------|

Guitar 2 Comes IN With This W/Wah
E------------------------------------------------------------------------------|
B---12-12-11-11-12-12-11-11-12-12-14-14-12-12-11-11-12-12-11-11-12-12-14-14----|
G------------------------------------------------------------------------------|
D------------------------------------------------------------------------------|
A------------------------------------------------------------------------------|
E------------------------------------------------------------------------------|

Both Guitars X 2
E--------------------------------------------------------------------------------|
B--------------------------------------------------------------------------------|
G--------------------------------------------------------------------------------|
D--------------------------------------------------------------------------------|
A---------------3-2---------3-2-3/5-------------3-2------------3-2-0-------------|
E---00-000-000-------00-000----------00-000-000-----00-000-000-------------------|
    xx xxx xxx       xx xxx          xx xxx xxx     xx xxx xxx

Both Guitars X 4
E-----------------------------------------------------------------------------------------------------|
B-----------------------------------------------------------------------------------------------------|
G-----------------------------------------------------------------------------------------------------|
D-----------------------------------------------------------------------------------------------------|
A-----------------------3-2/5-------------------3-2-------------------3-2/5---------------------3-2-0-|
E---00-000-000-000-000-------00-000-000-000-000-----00-000-000-000-000------00-000-000-000-000--------|
    xx xxx xxx xxx xxx       xx xxx xxx xxx xxx     xx xxx xxx xxx xxx      xx xxx xxx xxx xxx


| /  slide up
|   slide down
| h  hammer-on
| p  pull-off
| ~  vibrato
| +  harmonic
| x  Mute note
Suggest correction
Creating personal tab
Creating personal tab
You can edit any tab online and save it as your Personal.

You can edit, replace or remove any tab part or add personal notes – all changes will be seen only by you.

Personal tabs can be accessed anytime from any device, even offline.
Learn more »
comments
print report bad tab
5 comments total. Showing first comments.
0 reply
KingCookyIV 10 Jun 23, 2006 02:12 AM

this song is in B you fool!

0 reply
cyonics 10 Jul 07, 2006 02:25 PM

close, but not quite

0 reply
guitarzombie 10 Aug 01, 2006 11:59 AM

Not bad but your kinda lost

guest
Wanna post a correction for this tab? Suggest correction