Oops, an error
Loading. Please wait.

Dragula Tab

version 4
version 4
22,107 views 69 this week
no commentswrite comment
1 2 3 4 5
x 14
add to favorites
launch autoscroll
font size
0
reset
how to read this tab
guitar tuner
backing track
0:00
0:00
×
Best way to learn
"Dragula"
Autoscroll
slow
fast
+/-
esc
set tempo
stop
          DRAGULA
          by: Rob Zombie
          Tabed by: Mike
          STANDARD TUNING (E,B,G,D,A,e)


[intro with wah]

E---0--0--0--0--0--0--0--0--0--0--0--0----0--0--0--0--0--0--0--0---|
B---5--5--5--5--5--5--6--6--5--5--5--5----5--5--5--5--5--5--6--6---|
G------------------------------------------------------------------|
D------------------------------------------------------------------|
A------------------------------------------------------------------|
e------------------------------------------------------------------|


E---0--0--0--0------0--0--0--0--0--0--0--0--0--0--0--0-----0--0--0--|
B---5--5--5--5------5--5--5--5--5--5--6--6--5--5--5--5-----5--5--5--|
G-------------------------------------------------------------------|
D-------------------------------------------------------------------|
A-------------------------------------------------------------------|
e-------------------------------------------------------------------|


[VERSE (use wah) guitar 1]

E----0--0--0--0--0--0--0--0--0--0--0--0-----0--0--0--0--0--0--0--0--|
B----5--5--5--5--5--5--6--6--6--5--5--5-----5--5--5--5--5--5--6--6--|
G-------------------------------------------------------------------|
D-------------------------------------------------------------------|
A-------------------------------------------------------------------|
e-------------------------------------------------------------------|

E--0--0--0--0--||---------------------------------------------------|
B--5--5--5--5--||---------------------------------------------------|
G--------------||---------------------------------------------------|
D--------------||---------------------------------------------------|
A--------------||---------------------------------------------------|
e--------------||---------------------------------------------------|


[VERSE (with guitar 2)]

E-------------------------------------------------------------------|
B-------------------------------------------------------------------|
G-------------------------------------------------------------------|
D-------------------------------------------------------------------|
A----2--2--2--2--2--2--3--3--2--2--2--2-------2--2--2--2--2--2------|
e----0--0--0--0--0--0--1--1--0--0--0--0-------0--0--0--0--0--0------|

E---------------------||--------------------------------------------|
B---------------------||--------------------------------------------|
G---------------------||--------------------------------------------|
D---------------------||--------------------------------------------|
A---3--3--2--2--2--2--||--------------------------------------------|
e---1--1--0--0--0--0--||--------------------------------------------|


[CHORUS]

E--------------------------------------------------------------------|
B--------------------------------------------------------------------|
G--------------------------------------------------------------------|
D---5---------------------------5----2----2----2-------5-------------|
A---5----2--2--2--2--2--2-------5----2----2----2-------5--2--2--2--2-|
e---3----0--0--0--0--0--0-------3----0----0----0-------3--0--0--0--0-|

E----------------------------------||--------------------------------|
B----------------------------------||--------------------------------|
G----------------------------------||--------------------------------|
D---------5----2----2----2---------||--------------------------------|
A---2-----5----2----2----2----2^---||--------------------------------|
e---0-----3----0----0----0---------||--------------------------------|


[VERSE 2]

E----------------------------------------------------------||--------|
B----------------------------------------------------------||--------|
G----------------------------------------------------------||--------|
D----------------------------------------------------------||--------|
A-----x----x--x--x--x--x--------x---x---x---x--------------||--------|
e-----x----x--x--x--x--x--------x---x---x---x--------------||--------|


[FINAL CHORUS]

E---------------------------------------------------------------------|
B---------------------------------------------------------------------|
G---------------------------------------------------------------------|
D------2--------------2-------2----------2----------------------------|
A------2--------------2-------2----------2----------------------------|
e------0--------------0-------0----------0----------------------------|
==============


Dragula (Rob Zombie)
Tabbed by:SLAUGHTER!!!!!!!!!! (s_laughter_uk@yahoo.co.uk)

Tuning:CGCFAD


Bpm:125


[INTRO]


w/delay
---------------3------2-------|
-5------4---------------------|
------------------------------|
------------------------------|
------------------------------|
------------------------------| x2


[Riff A]

----------------------------------------------------------------|
----------------------------------------------------------------|
-19-19-19-20-20-19-19-19-19-19-19-19-19-19-20-20-19-19-19-19-19-|
----------------------------------------------------------------|
-17-17-17-17-17-17-17-17-17-17-17-17-17-17-17-17-17-17-17-17-17-|
----------------------------------------------------------------| x2


[VERSE]


Dead I am the one, Exterminating son,
Slipping through the trees, strangling the breeze.


[Riff B]


----------------------------------------------------------------|
----------------------------------------------------------------|
-19-19-19-20-20-19-19-19-19-19-19-19-19-19-20-20-19-19-19-19-19-|
----------------------------------------------------------------|
-17-17-17-17-17-17-17-17-17-17-17-17-17-17-17-17-17-17-17-17-17-|
--0--0--0--0--0--0--0--0--0--0--0--0--0--0--0--0--0--0--0--0--0-|


Dead I am the sky, watching angels cry,
As they slowly turn, conquering the worm.


[CHORUS]

-------------------------------------|
-------------------------------------|
-------------------------12--(13/14)-| (bend up to 13 or 14, it has the same affect.)
-------------------------------------|
-0-etc-----3-3-0-etc-----------------|
-0-w/p.m.--3-3-0-w/p.m.--------------| x2
Dig through the ditches n' burn through the witches I slam in the back of my dragula.


[INTERLUDE]

Rythmic string muting.


[VERSE w/rythmic string muting]

Dead I am the pool, spreading from the fool,
Weak and want you need, nowhere as you bleed .


[REPEAT RIFF B]

Dead I am the rat, feast upon the cat,
Tender is the fur, dying as you purr.


[REPEAT CHORUS]

[BRIDGE]


[RIFF C]

---------------|
---------------|
-5-5-5-5-6-6-6-|
-5-5-5-5-5-5-5-|
-3-3-3-3-3-3-3-|
---------------| x2
 p.m..........
Do it baby,


REPEAT RIFF B


REPEAT RIFF C


REPEAT RIFF B w/"Burn like an animal"


[INTERLUDE 2]

------------------------------|
------------------------------|
------------------------------|
-7-7-7-7-7-7-7-7-7-7----------|
-5-5-5-5-5-5-5-5-5-5----------|
-0-0-0-0-0-0-0-0-0-0-5--(6/7)-|


[VERSE]


[RIFF D]

----------------|
----------------|
-20--(21)--(20)-|
----------------|
----------------|
----------------| repeat ad lib.
Dead I am the life, dig into the skin,
Knuckle crack the bone, 21 to win.


REPEAT RIFF B


REPEAT RIFF D


Dead I am the dog, hound of hell you cry,
Devil on your back, I can never die.


REPEAT CHORUS


REPEAT BRIDGE


REPEAT CHORUS


[OUTRO]

-----------|
-----------| *fade this note in
-----------|
-----------|
---5*------|
-0---------| repeat ad lib.


Dig through the ditches n' burn through the witches I slam in the back of my dragula.


Please email me at s_laughter_uk@yahoo.co.uk
Please visit my website:www.homestead.com/slaughtertabs

==


Dragula - Rob Zombie
Hellbilly Deluxe (1998)

Tune down 1 1/2 steps


[Intro]

 Gtr. 1 w/wah                                2x
|---0--0--0--0--0--0--0--0--0--0--0--0--0--0---|
|---5--5--5--5--5--5--6--6--5--5--5--5--5--5---|
|-o------------------------------------------o-|
|-o------------------------------------------o-|
|----------------------------------------------|
|----------------------------------------------|

 Gtr. 1 w/wah                                2x
|---0--0--0--0--0--0--0--0--0--0--0--0--0--0---|
|---5--5--5--5--5--5--6--6--5--5--5--5--5--5---|
|-o------------------------------------------o-|
|-o------------------------------------------o-|
|----------------------------------------------|
|----------------------------------------------|
|Gtr. 2                                        |
|----------------------------------------------|
|----------------------------------------------|
|-o------------------------------------------o-|
|-o-2--2--2--2--2--2--3--3--2--2--2--2--2--2-o-|
|---2--2--2--2--2--2--3--3--2--2--2--2--2--2---|
|---0--0--0--0--0--0--1--1--0--0--0--0--0--0---|


[Verse]

|----------------------------------------------|
|----------------------------------------------|
|----------------------------------------------|
|----------------------------------------------|
|----------------------------------------------|
|----------------------------------------------|

 Gtr. 1 w/wah                                2x
|---0--0--0--0--0--0--0--0--0--0--0--0--0--0---|
|---5--5--5--5--5--5--6--6--5--5--5--5--5--5---|
|-o------------------------------------------o-|
|-o------------------------------------------o-|
|----------------------------------------------|
|----------------------------------------------|
|Gtr. 2                                        |
|----------------------------------------------|
|----------------------------------------------|
|-o------------------------------------------o-|
|-o-2--2--2--2--2--2--3--3--2--2--2--2--2--2-o-|
|---2--2--2--2--2--2--3--3--2--2--2--2--2--2---|
|---0--0--0--0--0--0--1--1--0--0--0--0--0--0---|

|----------------------------------------------|
|----------------------------------------------|
|----------------------------------------------|
|----------------------------------------------|
|----------------------------------------------|
|----------------------------------------------|


[Chorus]

|----------------------------------------|
|----------------------------------------|
|-o--------------------------------------|
|-o-5-----------------5----2----2----2---|
|---5---2--2--2--2-2--5----2----2----2---|
|---3---0--0--0--0-0--3----0----0----0---|

                                          f  2x
|----------------------------------------------|
|----------------------------------------------|
|--------------------------------------------o-|
|---5-----------------5----2----2----2---2b--o-|
|---5---2--2--2--2-2--5----2----2----2---------|
|---3---0--0--0--0-0--3----0----0----0---------|


[Pre-Verse]                                   4x

|---------------------------------------------|
|---------------------------------------------|
|-o-----------------------------------------o-|
|-o-----------------------------------------o-|
|---x----x--x--x--x--x--------x---x---x---x---|
|---x----x--x--x--x--x--------x---x---x---x---|

[Verse]                                       4x

|---------------------------------------------|
|---------------------------------------------|
|-o-----------------------------------------o-|
|-o-----------------------------------------o-|
|---x----x--x--x--x--x--------x---x---x---x---|
|---x----x--x--x--x--x--------x---x---x---x---|

 Gtr. 1 w/wah                                2x
|---0--0--0--0--0--0--0--0--0--0--0--0--0--0---|
|---5--5--5--5--5--5--6--6--5--5--5--5--5--5---|
|-o------------------------------------------o-|
|-o------------------------------------------o-|
|----------------------------------------------|
|----------------------------------------------|
|Gtr. 2                                        |
|----------------------------------------------|
|----------------------------------------------|
|-o------------------------------------------o-|
|-o-2--2--2--2--2--2--3--3--2--2--2--2--2--2-o-|
|---2--2--2--2--2--2--3--3--2--2--2--2--2--2---|
|---0--0--0--0--0--0--1--1--0--0--0--0--0--0---|

                                            3x
|---------------------------------------------|
|---------------------------------------------|
|-o-----------------------------------------o-|
|-o-----------------------------------------o-|
|---x----x--x--x--x--x--------x---x---x---x---|
|---x----x--x--x--x--x--------x---x---x---x---|


[Chorus]

|----------------------------------------|
|----------------------------------------|
|-o--------------------------------------|
|-o-5-----------------5----2----2----2---|
|---5---2--2--2--2-2--5----2----2----2---|
|---3---0--0--0--0-0--3----0----0----0---|

                                          f  2x
|----------------------------------------------|
|----------------------------------------------|
|--------------------------------------------o-|
|---5-----------------5----2----2----2---2b--o-|
|---5---2--2--2--2-2--5----2----2----2---------|
|---3---0--0--0--0-0--3----0----0----0---------|


[Bridge]

 Gtr. 1
|-------------------------------------------------|
|-------------------------------------------------|
|-o-----------------------------------------------|
|-o-----------------------------------------------|
|-------------------------------------------------|
|----4----4--4--4--4--4--4----4----4----4----4----|
|    pm.......................................]   |
|Gtr. 2                                           |
|-------------------------------------------------|
|-------------------------------------------------|
|-o-----------------------------------------------|
|-o-----------------------------------------------|
|----x----x--x--x--x--x--x----x----x----x----x----|
|----x----x--x--x--x--x--x----x----x----x----x----|

 Gtr. 1 w/wah                                2x
|---0--0--0--0--0--0--0--0--0--0--0--0--0--0---|
|---5--5--5--5--5--5--6--6--5--5--5--5--5--5---|
|-o------------------------------------------o-|
|-o------------------------------------------o-|
|----------------------------------------------|
|----------------------------------------------|
|Gtr. 2                                        |
|----------------------------------------------|
|----------------------------------------------|
|-o------------------------------------------o-|
|-o-2--2--2--2--2--2--3--3--2--2--2--2--2--2-o-|
|---2--2--2--2--2--2--3--3--2--2--2--2--2--2---|
|---0--0--0--0--0--0--1--1--0--0--0--0--0--0---|

 Gtr. 1
|-------------------------------------------------|
|-------------------------------------------------|
|-o-----------------------------------------------|
|-o-----------------------------------------------|
|-------------------------------------------------|
|----4----4--4--4--4--4--4----4----4----4----4----|
|    pm.......................................]   |
|Gtr. 2                                           |
|-------------------------------------------------|
|-------------------------------------------------|
|-o-----------------------------------------------|
|-o-----------------------------------------------|
|----x----x--x--x--x--x--x----x----x----x----x----|
|----x----x--x--x--x--x--x----x----x----x----x----|

 Gtr. 1 w/wah                                2x
|---0--0--0--0--0--0--0--0--0--0--0--0--0--0---|
|---5--5--5--5--5--5--6--6--5--5--5--5--5--5---|
|-o------------------------------------------o-|
|-o------------------------------------------o-|
|----------------------------------------------|
|----------------------------------------------|
|Gtr. 2                                        |
|----------------------------------------------|
|----------------------------------------------|
|-o------------------------------------------o-|
|-o-2--2--2--2--2--2--3--3--2--2--2--2--2--2-o-|
|---2--2--2--2--2--2--3--3--2--2--2--2--2--2---|
|---0--0--0--0--0--0--1--1--0--0--0--0--0--0---|


[Chorus]

|----------------------------------------|
|----------------------------------------|
|-o--------------------------------------|
|-o-5-----------------5----2----2----2---|
|---5---2--2--2--2-2--5----2----2----2---|
|---3---0--0--0--0-0--3----0----0----0---|

                                          f  2x
|----------------------------------------------|
|----------------------------------------------|
|--------------------------------------------o-|
|---5-----------------5----2----2----2---2b--o-|
|---5---2--2--2--2-2--5----2----2----2---------|
|---3---0--0--0--0-0--3----0----0----0---------|


[Verse 3]

|----------------------------------------------|
|----------------------------------------------|
|----------------------------------------------|
|----------------------------------------------|
|----------------------------------------------|
|----------------------------------------------|

 Gtr. 1 w/wah                                2x
|---0--0--0--0--0--0--0--0--0--0--0--0--0--0---|
|---5--5--5--5--5--5--6--6--5--5--5--5--5--5---|
|-o------------------------------------------o-|
|-o------------------------------------------o-|
|----------------------------------------------|
|----------------------------------------------|
|Gtr. 2                                        |
|----------------------------------------------|
|----------------------------------------------|
|-o------------------------------------------o-|
|-o-2--2--2--2--2--2--3--3--2--2--2--2--2--2-o-|
|---2--2--2--2--2--2--3--3--2--2--2--2--2--2---|
|---0--0--0--0--0--0--1--1--0--0--0--0--0--0---|

|----------------------------------------------|
|----------------------------------------------|
|----------------------------------------------|
|----------------------------------------------|
|----------------------------------------------|
|----------------------------------------------|


[Chorus]

|----------------------------------------|
|----------------------------------------|
|-o--------------------------------------|
|-o-5-----------------5----2----2----2---|
|---5---2--2--2--2-2--5----2----2----2---|
|---3---0--0--0--0-0--3----0----0----0---|

                                          f  2x
|----------------------------------------------|
|----------------------------------------------|
|--------------------------------------------o-|
|---5-----------------5----2----2----2---2b--o-|
|---5---2--2--2--2-2--5----2----2----2---------|
|---3---0--0--0--0-0--3----0----0----0---------|


[Bridge]

 Gtr. 1
|-------------------------------------------------|
|-------------------------------------------------|
|-o-----------------------------------------------|
|-o-----------------------------------------------|
|-------------------------------------------------|
|----4----4--4--4--4--4--4----4----4----4----4----|
|    pm.......................................]   |
|Gtr. 2                                           |
|-------------------------------------------------|
|-------------------------------------------------|
|-o-----------------------------------------------|
|-o-----------------------------------------------|
|----x----x--x--x--x--x--x----x----x----x----x----|
|----x----x--x--x--x--x--x----x----x----x----x----|

 Gtr. 1 w/wah                                2x
|---0--0--0--0--0--0--0--0--0--0--0--0--0--0---|
|---5--5--5--5--5--5--6--6--5--5--5--5--5--5---|
|-o------------------------------------------o-|
|-o------------------------------------------o-|
|----------------------------------------------|
|----------------------------------------------|
|Gtr. 2                                        |
|----------------------------------------------|
|----------------------------------------------|
|-o------------------------------------------o-|
|-o-2--2--2--2--2--2--3--3--2--2--2--2--2--2-o-|
|---2--2--2--2--2--2--3--3--2--2--2--2--2--2---|
|---0--0--0--0--0--0--1--1--0--0--0--0--0--0---|

 Gtr. 1
|-------------------------------------------------|
|-------------------------------------------------|
|-o-----------------------------------------------|
|-o-----------------------------------------------|
|-------------------------------------------------|
|----4----4--4--4--4--4--4----4----4----4----4----|
|    pm.......................................]   |
|Gtr. 2                                           |
|-------------------------------------------------|
|-------------------------------------------------|
|-o-----------------------------------------------|
|-o-----------------------------------------------|
|----x----x--x--x--x--x--x----x----x----x----x----|
|----x----x--x--x--x--x--x----x----x----x----x----|

 Gtr. 1 w/wah                                2x
|---0--0--0--0--0--0--0--0--0--0--0--0--0--0---|
|---5--5--5--5--5--5--6--6--5--5--5--5--5--5---|
|-o------------------------------------------o-|
|-o------------------------------------------o-|
|----------------------------------------------|
|----------------------------------------------|
|Gtr. 2                                        |
|----------------------------------------------|
|----------------------------------------------|
|-o------------------------------------------o-|
|-o-2--2--2--2--2--2--3--3--2--2--2--2--2--2-o-|
|---2--2--2--2--2--2--3--3--2--2--2--2--2--2---|
|---0--0--0--0--0--0--1--1--0--0--0--0--0--0---|


[Chorus]

|----------------------------------------|
|----------------------------------------|
|-o--------------------------------------|
|-o-5-----------------5----2----2----2---|
|---5---2--2--2--2-2--5----2----2----2---|
|---3---0--0--0--0-0--3----0----0----0---|

                                          f  2x
|----------------------------------------------|
|----------------------------------------------|
|--------------------------------------------o-|
|---5-----------------5----2----2----2---2b--o-|
|---5---2--2--2--2-2--5----2----2----2---------|
|---3---0--0--0--0-0--3----0----0----0---------|


[Outro]

|-----------------------------------------------|
|-----------------------------------------------|
|-----------------------------------------------|
|--2--------2--------2--------2--------2--------|
|--2--------2--------2--------2--------2--------|
|--0--------0--------0--------0--------0--------|

|-----------------------------------------------|
|-----------------------------------------------|
|-----------------------------------------------|
|--2--------2--------2--------2-----------------|
|--2--------2--------2--------2-----------------|
|--0--------0--------0--------0-----------------|
Suggest correction
comments
print report bad tab
guest
You may want to rate the tab now too:
select rating
Wanna post a correction for this tab? Suggest correction