Oops, an error
Loading. Please wait.

Dragula Tab

version 4
version 4
22,995 views 87 this week
no commentswrite comment
1 2 3 4 5
x 19
add to favorites
×
Save as Personal and add changes to this tab that will be seen only by you. Learn more ›
×
You can save this tab as Personal to edit and correct it or add notes. All changes will be seen only by you. Learn more »
save as personal
new!
launch autoscroll
font size
0
reset
how to read this tab
guitar tuner
backing track
0:00
0:00
Autoscroll
slow
fast
+/-
esc
set tempo
stop
Tuning
E A D G B E
[Intro with wah]
e|---0--0--0--0--0--0--0--0--0--0--0--0----0--0--0--0--0--0--0--0---|
B|---5--5--5--5--5--5--6--6--5--5--5--5----5--5--5--5--5--5--6--6---|
G|------------------------------------------------------------------|
D|------------------------------------------------------------------|
A|------------------------------------------------------------------|
E|------------------------------------------------------------------|

e|---0--0--0--0------0--0--0--0--0--0--0--0--0--0--0--0-----0--0--0--|
B|---5--5--5--5------5--5--5--5--5--5--6--6--5--5--5--5-----5--5--5--|
G|-------------------------------------------------------------------|
D|-------------------------------------------------------------------|
A|-------------------------------------------------------------------|
E|-------------------------------------------------------------------|

[Verse (use wah) guitar 1]
e|----0--0--0--0--0--0--0--0--0--0--0--0-----0--0--0--0--0--0--0--0--|
B|----5--5--5--5--5--5--6--6--6--5--5--5-----5--5--5--5--5--5--6--6--|
G|-------------------------------------------------------------------|
D|-------------------------------------------------------------------|
A|-------------------------------------------------------------------|
E|-------------------------------------------------------------------|

e|--0--0--0--0--|---------------------------------------------------|
B|--5--5--5--5--|---------------------------------------------------|
G|--------------|---------------------------------------------------|
D|--------------|---------------------------------------------------|
A|--------------|---------------------------------------------------|
E|--------------|---------------------------------------------------|

[Verse (with guitar 2)]
e|-------------------------------------------------------------------|
B|-------------------------------------------------------------------|
G|-------------------------------------------------------------------|
D|-------------------------------------------------------------------|
A|----2--2--2--2--2--2--3--3--2--2--2--2-------2--2--2--2--2--2------|
E|----0--0--0--0--0--0--1--1--0--0--0--0-------0--0--0--0--0--0------|

e|---------------------|--------------------------------------------|
B|---------------------|--------------------------------------------|
G|---------------------|--------------------------------------------|
D|---------------------|--------------------------------------------|
A|---3--3--2--2--2--2--|--------------------------------------------|
E|---1--1--0--0--0--0--|--------------------------------------------|

[Chorus]
e|--------------------------------------------------------------------|
B|--------------------------------------------------------------------|
G|--------------------------------------------------------------------|
D|---5---------------------------5----2----2----2-------5-------------|
A|---5----2--2--2--2--2--2-------5----2----2----2-------5--2--2--2--2-|
E|---3----0--0--0--0--0--0-------3----0----0----0-------3--0--0--0--0-|

e|----------------------------------|--------------------------------|
B|----------------------------------|--------------------------------|
G|----------------------------------|--------------------------------|
D|---------5----2----2----2---------|--------------------------------|
A|---2-----5----2----2----2----2^---|--------------------------------|
E|---0-----3----0----0----0---------|--------------------------------|

[Verse 2]
e|----------------------------------------------------------|--------|
B|----------------------------------------------------------|--------|
G|----------------------------------------------------------|--------|
D|----------------------------------------------------------|--------|
A|-----x----x--x--x--x--x--------x---x---x---x--------------|--------|
E|-----x----x--x--x--x--x--------x---x---x---x--------------|--------|

[Verse]
e|---------------------------------------------------------------------|
B|---------------------------------------------------------------------|
G|---------------------------------------------------------------------|
D|------2--------------2-------2----------2----------------------------|
A|------2--------------2-------2----------2----------------------------|
E|------0--------------0-------0----------0----------------------------|
Suggest correction
comments
print report bad tab
guest
Wanna post a correction for this tab? Suggest correction