Oops, an error
Loading. Please wait.

Educated Horses album tab

2,108 views 3 this week
2 commentsread comments
1 2 3 4 5
x 3
add to favorites
×
Save as Personal and add changes to this tab that will be seen only by you. Learn more ›
×
You can save this tab as Personal to edit and correct it or add notes. All changes will be seen only by you. Learn more »
launch autoscroll
font size
0
reset
how to read this tab
guitar tuner
edit
Autoscroll
slow
fast
+/-
esc
set tempo
stop
Author
Difficulty
Again, I used the highest rated tabs, except for 3 songs had no tabs so I will update
either I figure them out or they get added to UG.  Also, 17 Year Locust only had an intro
so I will try to figure out the rest and update.  American Witch is the version I tabbed
 JOHN 5 RULES.

UPDATE APRIL 30, 2010 - The long awaited update.  Added "Death of It All", "The Devil's 
and "Lords of Salem".  Also added the entire tab for "17 Year Locust" and fixed 
Witch".  You should be set to roll now.  That is, except for the still nonexistent tab for "Ride"

1.	"Sawdust in the Blood" (Version 1)- Tabbed by shyt13
2.	"American Witch"  (My Version)- Tabbed by Me
3.	"Foxy Foxy"  (Version 2)- Tabbed by SlinkyMcdougall
4.	"17 Year Locust" (Intro Version 1)- Tabbed by Ganjrockr
4.      "17 Year Locust" (Full Version) - Tabbed by Sewe Day
5.	"The Scorpion Sleeps" (Version 1)- Tabbed by Tyler Marley
6.	"100 Ways" (Version 1)- Tabbed by javi_twiggy
7.	"Let It All Bleed Out" (Version 1)- Tabbed by javi_twiggy
8.	"Death of It All" (Version 1) - Tabbed by Tyler Marley
9.	"Ride" (No Tab)
10.	"The Devil's Rejects" (Version 1) - Tabbed by Ironmanben
11.	"Lords of Salem" (Version 1) - Tabbed by Green Room

1. SAWDUST IN THE BLOOD - Tabbed by Shyt13
     F  A   F  A  E  A  E  A  D
e|---------------------------------------|
B|---------------------------------------|
G|--10-----10-----9-----9-----7----------|
D|------7------7-----7-----7-------------|
A|---------------------------------------|
E|---------------------------------------| X2

    Eb G  Eb G  D  G  D  G  C
e|---------------------------------------|
B|---------------------------------------|
G|--8-----8-----7-----7-----5------------|
D|-----5-----5-----5-----5---------------|
A|---------------------------------------|
E|---------------------------------------| X2


     F  A   F  A  E  A  E  A  D             F   A  F   A  G  A  G  A  A
e|--------------------------------------|----------------------------------|
B|--------------------------------------|-----------------8-----8-----10---|
G|--10-----10-----9-----9-----7---------|---10-----10----------------------|
D|------7------7-----7-----7------------|-------7------7-----7-----7-------|
A|--------------------------------------|----------------------------------|
E|--------------------------------------|----------------------------------|


    Eb G  Eb G  D  G  D  G  C               Eb G  Eb G  F  G  F  G  G
e|--------------------------------------|----------------------------------|
B|--------------------------------------|---------------6-----6-----8------|
G|--8-----8-----7-----7-----5-----------|---8-----8------------------------|
D|-----5-----5-----5-----5--------------|------5-----5-----5-----5---------|
A|--------------------------------------|----------------------------------|
E|--------------------------------------|----------------------------------|


    F  A   F  A  E  A  E  A  D
e|---------------------------------------|
B|---------------------------------------|
G|--10-----10-----9-----9-----7----------|
D|------7------7-----7-----7-------------|
A|---------------------------------------|
E|---------------------------------------| X2

    Eb G  Eb G  D  G  D  G  C
e|---------------------------------------|
B|---------------------------------------|
G|--8-----8-----7-----7-----5------------|
D|-----5-----5-----5-----5--5------------|
A|---------------------------------------|
E|---------------------------------------| X2

| /  slide up
| \  slide down
| h  hammer-on
| p  pull-off
| ~  vibrato
| +  harmonic
| x  Mute note

2.  AMERICAN WITCH - Tabbed by Me
American Witch
Rob Zombie
Educated Horses
NOTE - TUNING IS DROP B.  DROP B!

MAIN RIFF (Intro/Verses)
First Bit                    Ending 1                     Ending 2
C#|-------------------------|----------------------------|---------------------------|
G#|-------------------------|----------------------------|---------------------------|
E |-------------------------|----------------------------|---------------------------|
B |-------------------------|----------------------------|---------------------------|
F#|-0--0--0--0--0-0-0-------|-0--0--0--0-----------------|-0--0--0--0----------------|
B |-0--0--0--0--0-0-0-13-12-|-0--0--0--0--13-12-15(vbr.)-|-0--0--0--0--13-12-10(vbr.)|
PM  *  *  *  *  * * *         *  *  *  *                   *  *  *  *

OPENING LEAD
Played with slight vibrato maybe.  Bend the hell out of these.
C#|-12----------------------15--|-12----------------------10--|
G#|-15b numerous times then 18b-|-15b numerous times then 13b-|
E |-----------------------------|-----------------------------|
B |-----------------------------|-----------------------------|
F#|-----------------------------|-----------------------------|
B |-----------------------------|-----------------------------|


CHORUS RIFF
Part 1                             Part 2
C#|-------------------------------|----------------------------|
G#|-------------------------------|----------------------------|
E |-------------------------------|----------------------------|
B |-12-12\--12-12\----------------|-12-12\--12-12\-------------|
F#|-12-12\--12-12\----------------|-12-12\--12-12\-------------|
B |-12-12\--12-12\--12\--15(vbr.)-|-12-12\--12-12\--12\--10/12-|

BRIDGE RIFF
Part 1                                            Second time, end with THIS
C#|----------------------------------------------|---------------|
G#|----------------------------------------------|---------------|
E |----------------------------------------------|---------------|
B |----------------------------------------------|---------------|
F#|----------------------------------------------|---------------|
B |-0-3-5--0-5-7--0-7-10--0-10-12--0-12-15(vbr.)-|-0-12-10(vbr.)-|

BRIDGE RIFF 2
It’s basically the same thing, only power chords
C#|----------------------------------------------|---------------|
G#|----------------------------------------------|---------------|
E |----------------------------------------------|---------------|
B |-0-3-5--0-5-7--0-7-10--0-10-12--0-12----------|-0-12----------|
F#|-0-3-5--0-5-7--0-7-10--0-10-12--0-12----------|-0-12----------|
B |-0-3-5--0-5-7--0-7-10--0-10-12--0-12-15(vbr.)-|-0-12-10(vbr.)-|

CLEAN INTERLUDE LEAD
Played with a heavy vibrato effect.  AWESOME.
C#|-------10~~~-|-------10~-----8~-|
G#|-------------|------------------|
E |-7-8-7-------|-7-8-7-----8-7----|
B |-------------|------------------|
F#|-------------|------------------|
B |-------------|------------------|

DISTORTED INTERLUDE LEAD
Again with heavy vibrato. Bend these 21’s if you like
C#|-18-18-17-17-18-18-17-17-18-18-17-17-18-18-21-21-|
G#|-------------------------------------------------|
E |-------------------------------------------------|
B |-------------------------------------------------|
F#|-------------------------------------------------|
B |-------------------------------------------------|

Song Lineup  (I Think This Is Right)
INTRO
VERSE
CHORUS
VERSE
CHORUS
BRIDGE 1
BRIDGE 2
CLEAN LEAD
DISTORTED LEAD
VERSE
CHORUS

3.  Foxy, Foxy - Tabbed by SlinkyMcdougall
Tabbed by: Slinky McDougall
Tuning: Standard

Intro
   + +   + +   + +   + +    1st ending (2nd skips to main riff once)
e||-----------------------|--------------------------||
B||-3-3---3-3---3-3---3-3-|--------------------------||
G||-3-3---3-3---3-3---3-3-|--------------------------||
D||-3-3---3-3---3-3---3-3-|--------------------------||
A||-----------------------|--------------------------||
E||-----------------------|-x-3-x-2----x-2---2-x-2---||

Main Riff
e|----------------------|
B|----------------------|
G|----------------------|
D|----------------------|
A|----------------------|
E|-3-2-xxx-2-x-2-xx-2/3-|

Pre-Chorus (synth arranged for guitar)
e|------------------------|
B|------------------------|
G|----------------2-------|
D|-----2---4----------4---|
A|-4-----------4----------|
E|------------------------|

Guitar
e|----------------------|
B|----------------------|
G|----------------------|
D|-5-4-xxx-4-x-4-xx-4/5-|
A|-5-4-xxx-4-x-4-xx-4/5-|
E|-3-2-xxx-2-x-2-xx-2/3-|

Chorus
e|------------------------------------|
B|------------------------------------|
G|------------------------------------|
D|-4----2----4----4-------------------|
A|-4----2----4----4-------------------|
E|-2----0----2----2----2--2--2-x-2----|
                        ^(w/ Wah)^

Full Intro
Main Riff x 12
Prechorus x 4
Chorus x 4
Pause (drums and synth)
Main Riff x 8
Prechorus x 4
Chorus x 4
Main Riff x 6
Prechorus x 4
Chorus x 4
Prechorus/Chorus* x 4

* = The Keyboard plays the synth Prechorus, Zombie sings the prechorus and the Guitar
the chorus.

| /  slide up
| \  slide down
| h  hammer-on
| p  pull-off
| ~  vibrato
| +  harmonic
| x  Mute note
=============================================================================
I'M LEAVING THIS IN HEAR BECAUSE IT WOULDN'T BE FAIR TO JUST TAKE IT OUT

4.  17 YEAR LOCUST INTRO - Tabbed by Ganjrockr
Artist: Rob Zombie
Song: 17 Year Locust (Intro)
Album: Educated Horses (2006)

Tuning: Standard (eBGDAE)

Heres the pretty cool sounding intro from the song.  Took me about 10 minutes to figure
out (its a long time, but I don't transcribe music to tab often). I'll work on having
rest done as soon as I can.

The first droning note sounds like a bass playing as well , I'll have to record it with
bass and see how it sounds.

Intro
e|--------------------------------------------|
B|-----------------8-7---5-6-5----------------|
G|---6--6-4-6-4-6------6----------------------|
D|--------------------------------------------|
A|--------------------------------------------|
E|--------------------------------------------|

| /  slide up
|   slide down
| h  hammer-on
| p  pull-off
| ~  vibrato
| +  harmonic
| x  Mute note
============================================================================
4.  17 YEAR LOCUST - Tabbed by Sewe Dae

Song: 17 Year Locust
Band: Rob Zombie
Tabbed by: unspeakable.elvis@gmail.com

Tuning: 1 1/2 steps down (Low to high: C# F# B E G# c#)

Listen to the song for the structure.

"Sitar" Intro bit:
|-----------------------------|-----------------------------------|
|---------------11---10~------|---------------11---10-----8-9-8~--|
|-----9-7-9-7-9---------------|-9---9-7-9-7-9-----------9---------|
|-----------------------------|-----------------------------------|
|-----------------------------|-----------------------------------|
|-0---------------------------|-0---------------------------------|

Chorus riff
|---------------------------------------|
|---------------------------------------|
|---------------------------------------|
|-2---5-2-4-2------8---7------2-5-6-5---|
|-2---5-2-4-2------8---7------2-5-6-5---|
|-0---3-0-2-0------6---5------0-3-4-3---|

Lead over 1st Chorus Riff (played twice):
|-----------------------/17---/16~~~-----|
|-/17~~~-17-17-17-17\--------------------|
|----------------------------------------|
|----------------------------------------|
|----------------------------------------|
|----------------------------------------|

|-----------------------/15---/14~~~-----|
|-/17~~~-17-17-17-17\----------------/18-|
|----------------------------------------|
|----------------------------------------|
|----------------------------------------|
|----------------------------------------|


"Sitar" doodle (appears twice in the song)
|----12-13-16-13-12----13-12--------12---------------------|
|---x---------------14-------14-13-----14-13-10h12h13-10-9-|
|--x-------------------------------------------------------|
|-x--------------------------------------------------------|
|----------------------------------------------------------|
|----------------------------------------------------------|

  Tremolo picking:
|------------------------------------------------------|
|-8---6---8---6-------6--------------------------------|
|-----------------9-------9---7---9---7--6--7---9~~~~--| back to "Sitar" Intro
|------------------------------------------------------|
|------------------------------------------------------|
|------------------------------------------------------|


After the chorus the "Sitar" intro is repeated a lot, with small variations, such as:

|------------------------------------|
|------------------11---10-----8-9-8-|
|-9-9h10p9p7-9-7-9-----------9-------|
|------------------------------------|
|------------------------------------|
|------------------------------------|

|------------------------------------|
|-----------------/11---10-----8-9-8-|
|-9h10p9p7-7-9-7-9-----------9-------|
|------------------------------------|
|------------------------------------|
|------------------------------------|

And so forth until the end.

=============================================================================
5.  THE SCORPION SLEEPS - Tabbed By Tyler Marley
Tuning: standard

Song: The Scorpion Sleeps
Artist: Rob Zombie
Album: Educated Horses
Tabbed by: Tyler Marley

This is an awesome song off of Educated Horses.  If you don't have Educated Horses what
you doing here? Go get it right now!  Good Luck!

Intro
e|--------------------------------------|
b|--------------------------------------|
g|-8-7-3-5--8-10-8-7--8-7-3-5--5--8-7-8-|
d|-8-7-3-5--8-10-8-7--8-7-3-5--5--8-7-8-|
a|-6-5-1-3--6-8--6-5--6-5-1-3--3--6-5-6-|
e|--------------------------------------|

Chorus                             Then...                          2nd time
e|--------------------------------|---------------------------------|--------|
b|--------------------------------|---------------------------------|--------|
g|-3-5-5--5-8-8--3-5-5--3-5-5-5-5-|---5---5---5---------------------|--------|
d|-3-5-5--5-8-8--3-5-5--3-5-5-5-5-|---5---5---5---------13-13b(1/2)-|-13-----|b(1)
a|-1-3-3--3-6-6--1-3-3--1-3-3-3-3-|---3---3---3---15-13-------------|--------|
e|--------------------------------|---------------------------------|--------|
                                   (keep picking the 13 during bend)
                                   "alright, said it's alright..."
Verse
e|--------------|
b|--------------|
g|-3-5-5--x-x-x-|
d|-3-5-5--x-x-x-|
a|-1-3-3--x-x-x-|
e|--------------|

b() bend to number of steps indicated in parenthesis
x fret hand mute

That's it! Please rate.

6.  100 WAYS - Tabbed by
Rob Zombie
100 Ways
From "Educated Horses"

main:
e|------------------------------------------------------------------------|
b|------------------------------------------------------------------------|
g|-7/8-8-8-8-8-8-8-8-8-5-5-5-5-5-5-5-5/7-7-7-7-7-7-7-7-7-5/7-7-7-7-7-7-7--|
d|-0-0-0-0-0-0-0-0-0-0-0-0-0-0-0-0-0-0-0-0-0-0-0-0-0-0-0-0-0-0-0-0-0-0-0--|
a|------------------------------------------------------------------------|
e|------------------------------------------------------------------------|

and that's all
the guitar follows the piano
the bass i didn't figure it out yet, but it must be similar to the guitar
part or maybe an octave lower

7.  LET IT ALL BLEED OUT - Tabbed by javi_twiggy
Rob Zombie
Let it all Bleed out
From the album "Educated Horses"
Tabbed by javi_twiggy

tuning DADGBE
 p = palm muted
 / = slide


verses:
e|-------------------------------------------------------------|
b|-------------------------------------------------------------|
g|----------------------------------------------5-5-5-3-5-6----|
d|--0-0-0-0---1-0--0---0-0-0---0---0-0-0---0----5-5-5-3-5-6----|
a|--0-0-0-0---1-0--0---0-0-0---0---0-0-0---0-------------------|
d|--0-0-0-0---1-0--0---0-0-0---0---0-0-0---0-------------------|
    p p p p            p p p       p p p

break:
e|-------------------------------|
b|-------------------------------|
g|-------------------------------|
d|--0-6---5-3---0-6---5-3---0----|
a|--0-6---5-3---0-6---5-3---0----|
d|--0-6---5-3---0-6---5-3---0----|


chorus guitar 1:
e|--------------------------------------------------------------|
b|--------------------------------------------------------------|
g|------8/108----13-12-13-12--------8/108----13-12-13-/15-------|
d|--10---------------------------10-----------------------------|
a|--------------------------------------------------------------|
d|--------------------------------------------------------------|

chorus guitar 2:
e|--------------------------------------------------|
b|--------------------------------------------------|
g|--------------------------------------------------|
d|--5--5--5-5-/6-6--6--6---0--0--0-0---3-3--3--3----|
a|--5--5--5-5-/6-6--6--6---0--0--0-0---3-3--3--3----|
d|--3--3--3-3-/6-6--6--6---0--0--0-0---3-3--3--3----|


the coolest song on the new album
try yourself to figure out the solo between verses
me cago en dios!

8.  DEATH OF IT ALL - Tabbed by Tyler Marley
tuning: CGCFAD

Song: Death of it All
Artist: Rob Zombie
Album: Educated Horses
Tabbed by: Tyler Marley

Here it is.  Sorry, I don't have it all but I have the main parts.

Intro: Guitar 1 (let ring)
D|-8-----8-----7-----7-----|-8-----8-----7-----7-----|---------------|
A|---0-----0-----0-----0---|---0-----0-----0-----0---|---8------8----|
F|-----9-----9-----9-----9-|-----9-----9-----9-----9-|-----11-----11-|
C|-------------------------|-------------------------|-9------9------|
G|-------------------------|-------------------------|---------------|
C|-------------------------|-------------------------|---------------|

                                Ending 1st time    Ending 2nd time
D|-------------|---------------|-------------|        D|-------------|
A|---7-----7---|---8------8----|---7-----7---|        A|---7---------|
F|-----9-----9-|-----11-----11-|-----9-----9-|        F|-----9---7---|
C|-9-----9-----|-9------9------|-9-----9-----|(2X)    C|-9-----9---9-|
G|-------------|---------------|-------------|        G|-------------|
C|-------------|---------------|-------------|        C|-------------|

(2X)
D|--------------------------|-------------0-------0---|(where outro ends)
A|-7-------7---8--------8---|-7-------7---------------|
F|---0---0---0---0---0----0-|---0---0---0---0---0---0-|
C|--------------------------|-------------------------|
G|-----9-----------9--------|-----9-----------9-------|
C|--------------------------|-------------------------|

(2X)
D|-8-----8-----7-----7-----|---------------|-------------|
A|---0-----0-----0-----0---|---8------8----|---7-----7---|
F|-----9-----9-----9-----9-|-----11-----11-|-----9-----9-|
C|-------------------------|-9------9------|-9-----9-----|
G|-------------------------|---------------|-------------|
C|-------------------------|---------------|-------------|

(3X)                            Ending of Intro:
D|-0-----0-----0-------0---|    D|-0-----0----------|
A|---6-----6-----6-------6-|    A|---6-----6--------|
F|-----9-----9-----9-------|    F|-----9-----9------|
C|-------------------8-----|    C|-------------8----|
G|-------------------------|    G|------------------|
C|-------------------------|    C|------------------|

Main Riff: Guitar 1 (3X)         Main Riff: Guitar 2 (3X)  Then...
D|----12-12-14-15---|              D|---------------|      D|--------------|
A|-12---------------|              A|---------------|      A|--------------|
F|------------------|              F|---9-9-11-12---|      F|---9-9----9-9-|
C|------------------|              C|-9-9-9-11-12---|      C|-9-9-9--9-9-9-|
G|------------------|              G|-9-7-7--9-10---|      G|-9-7-7--9-7-7-|
C|------------------|              C|-9-------------|      C|-9------9-----|


Verse: sorry, don't have


Chorus: Main Riff, Guitars 1 and 2


Interlude: Main Riff, Guitar 2 (with orchestra)


Verse


Chorus


Interlude


Verse


Chorus


Outro: Same as intro (marked where to stop)


There it is.

=============================================================================
9.  RIDE (No Tab Yet)

=============================================================================
10.  THE DEVIL's REJECTS - Tabbed by Ironmanben

Tabbed by: ironmanben
Email: bentrooper@gmail.com

Tuning:

guitar 1:
c G E B F B

guitars 2 and 3:
c G E B F C

NOTE: Many parts of this tab are pedal-steel or synth arranged for guitar.

intro:
(guitar 2:)
e|-4-9-9-99\7-4-7-77-77\6-4-/9-9-99\7-4-/7-|
B|-x-x-x-xx-x-x-x-xx-xx-x-x--x-x-xx-x-x--x-|
G|-2-7-7-77\5-2-5-55-55\4-2-/7-7-77\5-2-/5-|
D|-----------------------------------------|
A|-----------------------------------------|
E|-----------------------------------------|

intro part 2:
(guitar 2:)
e|-1111/131111/13-|
B|-x-x--x--x-x-x--|
G|-9-9-/11-9-9/11-|
D|----------------|
A|----------------|
E|----------------|

intro part 3:
guitar 1:
e|---------------------------------|
B|---------------------------------|
G|---------------------------------|
D|-0-----------(0)---------6---5-3-|
A|-0-----------(0)---------6---5-3-|
E|-0-----------(0)---------6---5-3-|
-|guitar 2:                        |
e|/10-/16-/17----/10-/17-\16-------|
B|-x---x---x------x---x---x--------|
G|/7--/13-/14----/7--/14-\13-------|
D|---------------------------------|
A|---------------------------------|
E|---------------------------------|
-|guitar 3:                        |
e|-0-00-00-00-00-00-00-00-00-00-00-00-00-00-00-00-0-|
B|-0-00-00-00-00-00-00-00-00-00-00-00-00-00-00-00-0-|
G|-0-00-00-00-00-00-00-00-00-00-00-00-00-00-00-00-0-|
D|-2-22-22-22-22-22-22-22-22-22-22-22-22-22-22-22-2-|
A|-2-22-22-22-22-22-22-22-22-22-22-22-22-22-22-22-2-|
E|-0-00-00-00-00-00-00-00-00-00-00-00-00-00-00-00-0-|

verse:
(guitar 2:)
e|----------------------------------------------------|
B|----------------------------------------------------|
G|-7-77-77-7-8-7--77-77-7-8-7--77-77-7-8-7-13-13-12-10|
D|-x-xx-xx-x-x-x--xx-xx-x-x-x--xx-xx-x-x-x-x--x--x--x-|
A|-5-55-55-5-6-5--55-55-5-6-5--55-55-5-6-5-11-11-10-8-|
E|----------------------------------------------------|


chorus:
guitar 1:
c|---------------------|
G|---------------------|
E|---------------------|
B|-0-2-0-3-0-6-5-0-2-3-|
F|-0-2-0-3-0-6-5-0-2-3-|
B|-0-2-0-3-0-6-5-0-2-3-|
-|guitar 2:            |
e|-----10/13-13\10-----|
B|-----x--x--x--x------|
G|-----7-/10-10\7------|
B|---------------------|
A|---------------------|
B|---------------------|

post-chorus:
guitar 2:
e|-0-------------------|
B|-0-------------------|
G|-0-------------------|
D|-2-------------------|
A|-2-------------------|
E|-0-------------------|
-|guitar 1:            |
e|---------------------|
B|---------------------|
G|---------------------|
D|---------------------|
A|-----5---3-8---6---5-|
E|---0---0-------------|


| /  slide up
| \  slide down
| h  hammer-on
| p  pull-off
| ~  vibrato
| +  harmonic
| x  Mute note

=============================================================================
11.  LORDS OF SALEM - Tabbed by Green Room

Uhhh Hi. This is my first tab, and it is the first tab I've seen for ths song. I
appreciate any type of criticism. Its pretty easy. I know i'm missing a small fill after the
bridge, or solo rather. Here it is.

EDIT: Okay, I think its Drop C, but either one is fine.


e-----------------------------------------------|
B-----------------------------------------------|
G-----------------------------------------------|
D----0-0--12b----0-0--12b-12b-10----------------|
A----0-0--12b----0-0--12b-12b-10--|   Intro-----| X4
D-\--0-0--12b----0-0--12b-12b-10----------------|

* Very small bend, its not a big bend at all.

                                      Verse

e----------------------------------------------------------|
B----------------------------------------------------------|
G----------------------------------------------------------|      X2
D----0-0-----0--0-0--------0-0------0--0-0-----------------|
A----0-0-----0--0-0--------0-0------0--0-0-----------------|
D----0-0-----0--0-0--------0-0------0--0-0---<13>|---------|


                  PM                   PM
e---------------------------------------------------------------|
B---------------------------------------------------------------|
G---------------------------------------------------------------|      X2
D----0-0--1---0--0-0--1-1------0-0--1----0--0-0-----------------|
A----0-0--1---0--0-0--1-1------0-0--1----0--0-0-----------------|
D----0-0--1---0--0-0--1-1------0-0--1----0--0-0---<13>|---------|

           Chorus
e------------------------------------|
B------------------------------------|
G------------------------------------|
D----0-0--12b----0-0--12b-12b-0------|
A----0-0--12b----0-0--12b-12b-0------|
D-\--0-0--12b----0-0--12b-12b-0------|

Verse 2

e----------------------------------------------------------|
B----------------------------------------------------------|
G----------------------------------------------------------|      X2
D----0-0-----0--0-0--------0-0------0--0-0-----------------|
A----0-0-----0--0-0--------0-0------0--0-0-----------------|
D----0-0-----0--0-0--------0-0------0--0-0---<13>|---------|


                  PM                   PM
e---------------------------------------------------------------|
B---------------------------------------------------------------|
G---------------------------------------------------------------|      X2
D----0-0--1---0--0-0--1-1------0-0--1----0--0-0-----------------|
A----0-0--1---0--0-0--1-1------0-0--1----0--0-0-----------------|
D----0-0--1---0--0-0--1-1------0-0--1----0--0-0---<13>|---------|

Chorus 2

e------------------------------------|
B------------------------------------|
G------------------------------------|
D----0-0--12b----0-0--12b-12b-0------|
A----0-0--12b----0-0--12b-12b-0------|
D-\--0-0--12b----0-0--12b-12b-0------|


Bridge/Solo

e---------------------------------------------------------------------|
B---------------------------------------------------------------------|
G-2--4--5-7-------4--5--7--9-------8---7-5-3-------8---7-5-3----------|   X2
D---------------------------------------------------------------------|
A---------------------------------------------------------------------|
D---------------------------------------------------------------------|

Chorus 3

e------------------------------------|
B------------------------------------|
G------------------------------------|
D----0-0--12b----0-0--12b-12b-0------|
A----0-0--12b----0-0--12b-12b-0------|
D-\--0-0--12b----0-0--12b-12b-0------|

Outro

e--------------------------------------------------------------------|
B--------------------------------------------------------------------|
G--------------------------------------------------------------------|
D--------------------------------------------------------------------|
A--000-1---0001------------------------------------------------------|
D--000-1---0001------------------------------------------------------|


Well there it is. Its pretty easy. PM me if you have any questions or anything.

EDIT: Okay, I think its Drop C, but either one is fine.

=============================================================================

There you go.  Keep on rocking.  John 5 Rules!

            
            
Suggest correction
Creating personal tab
Creating personal tab
You can edit any tab online and save it as your Personal.

You can edit, replace or remove any tab part or add personal notes – all changes will be seen only by you.

Personal tabs can be accessed anytime from any device, even offline.
Learn more »
Give kudos to tab author, rate the tab!
1 2 3 4 5
comments
print report bad tab
2 comments total.
0 reply
cdy_hns 10 Nov 17, 2009 08:48 AM

You need to do all the songs

0 reply
systematication 188 Nov 20, 2010 04:00 AM

Well, now all of them except Ride are up. So hopefully that ... pitiful 1 star rating will go up.

guest
You may want to rate the tab now too:
select rating
Wanna post a correction for this tab? Suggest correction